» » »

Mago De Oz, Ancha Es Castilla Tabs (ver.1)

Artists:  A B C D E F G H I J K L M N O P Q R S T U V W X Y Z # 

Ancha Es Castilla Tabs (ver.1)

Mago De Oz Tabs
Rating:
5/5 (2 votes)
Ancha Es Castilla lessons Tabs too difficult? Try these video lessons and learn fast
                Introx2
e|-------------------------------------------------------|
b|----8-----8--------------------------------------------|
g|------10----10----8--8----7-8-7-------------------7----|
d|----------------------------------10--10---8--10-------|
a|-------------------------------------------------------|
e|-------------------------------------------------------|

e|------------------------------------------------------------|
b|-------------------8--8------8--9--8------------------------|
g|--8--8--7--8--10--------10------------10--8--7--8--10--8--7-|
d|------------------------------------------------------------|
a|------------------------------------------------------------|
e|------------------------------------------------------------|

e|---------------------------------------------------8--------|
b|-------------------------------------------------8----------|
g|-----------------------7-----7-----------7-----9------------|
d|--10--8--10--8--10---8-----9--10------9----10---------------|
a|------------------------------------------------------------|
e|------------------------------------------------------------|

notas
 Cm         A#        G#       G         D#       C*
e-3---------6---------4--------3---------6--------8---|
b-4---------6---------4--------3---------8--------8---|
g-5---------7---------5--------4---------8--------9---|
d-5---------8---------6--------5---------8--------10--|
a-3---------8---------6--------5---------6--------10--|
e-3---------6---------4--------3---------6--------8---|

Verso 1
Cm                                 A#
Si crees que todo cuanto has escuchado
G#                         A#
no tiene contigo nada que ver
Cm                 A#
estas amigo equivocado
Cm         G  Cm        G
parate a ver, parate a ver

D#                A#             
todos soñamos con ser, 
G#                A#
un caballero y tener,
D#                   A# 
algo por lo  que luchar,
G#        A#        C*
y un amor que defender

Intro..x2

Verso 2
Cm                           A#
si tienes un ideal, un principio
Gm                     A#
defiendelo y aferrate a él
Cm                                A#
alguien escribió que la vida es sueño
Cm         G  Cm       G
y los sueños, sueños son.

D#                 A#
sé rebelde como el mar
G#                    A#
sé noble por que al final
 D#                A#
de esta vida llavarás,
C#    A#    C*
 tu libertad

Intro..x2

verso 3
 Cm                              A#
no importa cuan loco te crean todos
 Gm                         A#
mantente firme, mantente en pie 
 Cm                                  A#
buscar tu sitio, encontrarse a si mismo
Cm         G  Cm       G
es tu misión, es la razón

D#                  A#
gritale al cielo que no
 G#                  A#
quieres ser solo uno mas 
 D#                    A#
ancha es Castilla y el sol
C#     A#       C*
tu caminar guiará

Flauta
e|---------------------------------------------------------|
b|---8--8h9p8--8--9--11------------------------------------|
g|-----------------------10--------8--8h10p8-8--10--12--7--|
d|---------------------------------------------------------|
a|---------------------------------------------------------|
e|---------------------------------------------------------|

e|---------------------------------------------------------|
b|---8--8h9p8--8--9--11------------------------------------|
g|-----------------------10--8--7--5-----------------------|
d|---------------------------------------------------------|
a|---------------------------------------------------------|
e|---------------------------------------------------------|

Intro..x2

Autro                                                          
e|---------------------------------------------------------|
b|--------------------------------------------6--8---------|
g|--0--5--5--7--8--7--5--0-----0--5--5--7--8---------------|
d|---------------------------------------------------------|
a|---------------------------------------------------------|
e|---------------------------------------------------------|

                                    /----- rapidisimo ----/      
e|---6--6--------6-----------------------------------------|
b|-8-------9--8-----10--10--8--6--10--8--6-----------------|
g|-------------------------------------------6--7--8--7--6-|
d|---------------------------------------------------------|
a|---------------------------------------------------------|
e|---------------------------------------------------------|

pd.si no les suena afinen bien la guitarrra
CABRONES!!!!!!!!!
            

comments powered by Disqus
↑ Back to top | Mago De Oz Tabs for Ancha Es Castilla. Lyrics for acoustic guitar and electric guitar. Tablatures and chords are parodies/interpretations of the original songs. You may use it for private study, scholarship, research or language learning purposes only