» » »

Magnum, Red On The Highway Bass tabs (ver.1)

Artists:  A B C D E F G H I J K L M N O P Q R S T U V W X Y Z # 

Red On The Highway Bass tabs (ver.1)

Magnum Tabs
 Rating:
4/5 (4 votes)
Red On The Highway lessons Tabs too difficult? Try these video lessons and learn fast
                      -----------------------------------------------------------------------------
-----------------------------------------------------------------------------


Tuning: Standart tuning (E-A-D-G)

[Intro] 1x   (0:00-0:16)

G|----------------------------------|
D|----------------------------------|
A|----------------------------------|
E|--5---0-3-1---0-3-5---0-3-1~~~s13-|


[Verse] 4x   (0:17-0:42)

G|----------------------------|
D|-----------5~~--------------|
A|---------5~~~~--------------|
E|--3~s5--------10~~s5-3~s5---|


[Chorus] 1x    (0:42-1:00)

G|--------------------------------------------------------|
D|--------------------------------------------------------|
A|--------------------------------------------------------|
E|--55555555-33333333-11111111-11111135-55555555-55555555-|

G|------------------------------------|
D|------------------------------------|
A|------------------------------------|
E|--55555555-33333333-11111111-111111-|

[Verse] 4x     (1:01-1:26)

[Chorus] 1x     (1:27-1:44)


[During GuitarSolo] 1x    (1:45-2:17)     (=[During SynthesizerSolo])

G|-------------------------------------------------------|
D|-------------------------------------------------------|
A|-------------------------------------------------------|
E|--5--5--5--5--5-5--5--5-5--5-5--5-5-55555555-55555053--|

G|----------------------------------------------------------|
D|----------------------------------------------------------|
A|----------------------------------------------------------|
E|--11111111-111110135-55555555-55555053-11111111-11111111--|

[Verse] 4x   (2:18-2:44)

[Chorus] 1x  (2:45-3:02)

[SynthesizerSolo] 1x   (3:02-3:35)

[Chorus] 1x   (3:36-3:53)


[Outro] 1x   (3:54-4:14)

G|-----------------------------------------|
D|-----------------------------------------|
A|-----------------------------------------|
E|--5--5--5--5--5--5--5--3-1-1----3s5-3s5--|

~ Hold
s Slide
            
Submit corrections

comments powered by Disqus
↑ Back to top | Magnum Bass for Red On The Highway. Lyrics for acoustic guitar and electric guitar. Tablatures and chords are parodies/interpretations of the original songs. You may use it for private study, scholarship, research or language learning purposes only