>
 >
Pray For The Day Live

Pray For The Day Live Guitar Tabs

Magnum - Pray For The Day Live chords, tabs, tablatures, lyrics

Guitar lessons | Add/correct | Request | Top 50 tabs Artists:  A B C D E F G H I J K L M N O P Q R S T U V W X Y Z 0-9

Pray For The Day Live Guitar Tabs – Magnum

CD, Sheet music, Poster

Do you like Pray For The Day Live? Share with your friends now
Tabs

                       Magnum / Pray for the day (Live bootleg)

                         (transcribed in a hurry by mEeK)



                                                                        
E||----------------------|----------------------|----------------------|
B||----------------------|----------------------|----------------------|
G||--5----7----3/---7----|--5-------------------|-------5--------------|
D||--5----7----3/---7----|--5----5--------------|-------5---------3----|
A||--3----5----1/---5----|--3----3--------------|--0----3--------------|
E||----------------------|------------1----3----|------------5---------|


        2x                                            
--------||--3----|
--------||--3----|
--3~---*||--5----|
--3~---*||--5----|
--1~----||--3----|
--------||--3----|

            <--- Pray for the day!

E||----------------------|-----------------|------||
B||----------------------|-----------------|------||
G||----------------------|-----------------|------||
D||-------3---------5----|--5/---7---------|------||
A||--5---------5---------|------------5~---|------||
E||----------------------|-----------------|------||

On top of the world...


E||----------------------|-----------------|------||
B||----------------------|-----------------|------||
G||----------------------|-----------------|------||
D||----------------------|-------2---------|------||
A||-------3---------5----|-----------------|------||
E||--5---------5---------|---5--------5~---|------||


Nothing breaks in...

                                                                        
E||----------------------|----------------------|----------------------|
B||----------------------|-------5--------------|----------------------|
G||-------5---------7----|-----------------7----|-------5---------7----|
D||--5---------5---------|--5---------5---------|--5---------5---------|
A||----------------------|----------------------|----------------------|
E||----------------------|----------------------|----------------------|

Cross after cross...
                                                                             
------------|----------------------|-----------------|----------------------|
------------|----------------------|-------3---------|----------------------|
-------5----|-------3---------5----|-----------------|--5----7----3/---7----|
--5---------|--3---------3---------|--3---------5----|--5----7----3/---7----|
------------|----------------------|-----------------|--3----5----1/---5----|
------------|----------------------|-----------------|----------------------|

They have to dig in...                           Where to begin....
                                               
----------------------|----------------------||
----------------------|----------------------||
--5-------------------|--5--------------3----||
--5-------------------|--5---------3----3----||
--3--------------0----|--3--------------1----||
-------1----3---------|-------5--------------||


Remember at the border....


E||----------------------|-----------------|------||
B||----------------------|-----------------|------||
G||----------------------|-----------------|------||
D||-------3---------5----|--5/---7---------|------||
A||--5---------5---------|------------5~---|------||
E||----------------------|-----------------|------||

On top of the world...


E||----------------------|-----------------|------||
B||----------------------|-----------------|------||
G||----------------------|-----------------|------||
D||----------------------|-------2---------|------||
A||-------3---------5----|-----------------|------||
E||--5---------5---------|---5--------5~---|------||


Nothing breaks in...

                                                                        
E||----------------------|----------------------|----------------------|
B||----------------------|-------5--------------|----------------------|
G||-------5---------7----|-----------------7----|-------5---------7----|
D||--5---------5---------|--5---------5---------|--5---------5---------|
A||----------------------|----------------------|----------------------|
E||----------------------|----------------------|----------------------|

Cross after cross...
                                                                             
------------|----------------------|-----------------|----------------------|
------------|----------------------|-------3---------|----------------------|
-------5----|-------3---------5----|-----------------|--5----7----3/---7----|
--5---------|--3---------3---------|--3---------5----|--5----7----3/---7----|
------------|----------------------|-----------------|--3----5----1/---5----|
------------|----------------------|-----------------|----------------------|

They have to dig in...                           Where to begin....

                                                                       
E||----------------------|----------------------|----------------------|
B||----------------------|----------------------|----------------------|
G||-------3--------------|--3--------------3----|-------3---------3----|
D||-------3--------------|--3--------------3----|-------3---------3----|
A||--x----1----x----x----|--1----x----x----1----|--x----1----x----1----|
E||--0---------0----0----|-------0----0---------|--0---------0---------|


They crowned you with pain... 

                                                                
                                                                         
E||----------------------|----------------------|----------------------||
B||----------------------|----------------------|----------------------||
G||-------7--------------|-------7--------------|-------7--------------||
D||-------7---------5----|-------7---------5----|-------7---------5----||
A||--x----5----x----5----|--x----5----x----5----|--x----5----x----5----||
E||--0---------0---------|--0---------0---------|--0---------0---------||


And emptied your head....

                                                                 
----------------------|----------------------|----------------------|
----------------------|----------------------|----------------------|
--5--------------5----|------------5---------|-------5--------------|
-------5--------------|--5--------------5----|------------5---------|
------------3---------|-------3--------------|--3--------------3----|
----------------------|----------------------|----------------------|

Your rescuers came....
                                                                     
----------------------|----------------------|----------------------|
----------------------|----------------------|----------------------|
--5--------------5----|-----------------3----|------------3---------|
-------5--------------|--5-------------------|--3--------------3----|
------------3---------|-------3----0---------|-------1--------------|
----------------------|----------------------|----------------------|

And left you for dead...
                                                                     
----------------------|----------------------|----------------------|
----------------------|----------------------|----------------------|
-------3--------------|--3--------------3----|----------------------|
------------3---------|-------3--------------|--3--------------5----|
--1--------------1----|------------1---------|-------1----3---------|
----------------------|----------------------|----------------------|

                                                 <--- Now it has to be said...
                                          
----------------------|-----------------||
----------------------|-----------------||
--5-------------------|-----------------||
-------5--------------|-----------------||
----------------------|-----------------||
------------6----5----|--6----5----3----||


Remember at the border....


E||----------------------|----------------------|----------------------|
B||----------------------|----------------------|----------------------|
G||--5----7----3/---7----|--5-------------------|-------5--------------|
D||--5----7----3/---7----|--5----5--------------|-------5---------3----|
A||--3----5----1/---5----|--3----3--------------|--0----3--------------|
E||----------------------|------------1----3----|------------5---------|


        2x                                            
--------|
--------|
--3~---*|
--3~---*|
--1~----|
--------|

                         x4
E||----------------------||
B||----------------------||
G||--7----7----7--------*||
D||--7----7----7--------*||
A||--5----5----5---------||
E||----------------------||


And all across the land....


                     x4
E||------------------||
B||------------------||
G||--5----5----5----*||
D||--5----5----5----*||
A||--3----3----3-----||
E||------------------||


The keys to freedom jammed...

                                                                        
E||----------------------|----------------------|----------------------|
B||----------------------|----------------------|----------------------|
G||----------------------|----------------------|----------------------|
D||--5----7----5----3----|-------5----7----5----|--3---------5----7----|
A||----------------------|--5-------------------|-------5--------------|
E||----------------------|----------------------|----------------------|

Oh, oh, oh, oh, oh....
                                                                     
----------------------|----------------------|----------------------|
----------------------|----------------------|----------------------|
----------------------|----------------------|----------------------|
--5----3---------5----|--7----5----3----3----|------------3---------|
------------5---------|----------------------|--4----5---------5----|
----------------------|----------------------|----------------------|


                                                                
-----------------|----------------------|----------------------|
-----------------|----------------------|----------------------|
-----------------|----------------------|----------------------|
--3----5----5----|-------5----7----5----|--3--------------3----|
-----------------|--5-------------------|-------5----5---------|
-----------------|----------------------|----------------------|


                                                                     
----------------------|----------------------|----------------------|
----------------------|----------------------|----------------------|
----------------------|----------------------|----------------------|
-------5----7---------|-------5----7----5----|--3-------------------|
--5--------------5----|--5-------------------|-------5---------5----|
----------------------|----------------------|------------5---------|


                                                                     
----------------------|----------------------|----------------------|
----------------------|----------------------|----------------------|
----------------------|----------------------|----------------------|
-----------------3----|-----------------3----|-----------------3----|
-------7----0---------|--0----7----0---------|--7----5----5---------|
--5-------------------|----------------------|----------------------|


                                                                       
----------------------|------------------------|----------------------|
----------------------|------------------10----|--8----6----8---------|
----------------------|--5----7----10----------|----------------------|
-------5----7---------|------------------------|----------------------|
--5--------------5----|------------------------|----------------------|
----------------------|------------------------|-----------------1----|


                                         
----------------------|----------------||
----------------------|----------------||
------------5---------|-------3--------||
------------5---------|--3----3--------||
-------0----3---------|-------1--------||
--3--------------5----|----------------||



E||----------------------|----------------------|----------------------|
B||----------------------|----------------------|----------------------|
G||--5----7----3/---7----|--5-------------------|-------5--------------|
D||--5----7----3/---7----|--5----5--------------|-------5---------3----|
A||--3----5----1/---5----|--3----3--------------|--0----3--------------|
E||----------------------|------------1----3----|------------5---------|


Remember at the border...

        2x                                            
--------|
--------|
--3~---*|
--3~---*|
--1~----|
--------|


Pray for the daaaaaaaaaaaaaaaay....

_______________________________________________________________________



Mike, for the Clarkin sound?? Get a stereo chorus like a Rockman Fx 100 and you got it :)


Cya!





Comments


Popular Magnum tabs & chords
Intro Bass Tabs
Let Somebody In Chords
Putting Things In Place Chords
Back Street Kid Tabs
Before First Light Tabs
Id Breathe For You Tabs
Vigilante Tabs
A Face In The Crowd Ukulele
Heartbroke And Busted Ukulele
Let Somebody In Ukulele


Song lyrics



↑ Back to top | Tablatures and chords are parodies/interpretations of the original songs. You may use it for private study, scholarship, research or language learning purposes only
© 2014 AZChords.com Contact us | Privacy policy | DMCA | Add/correct tabs | Request tabs | Top 50 tabs