» » »

Magnum, Kingdom Of Madness Tabs (ver.1)

Artists:  A B C D E F G H I J K L M N O P Q R S T U V W X Y Z # 

Kingdom Of Madness Tabs (ver.1)

Magnum Tabs
Rating:
3/5 (1 vote)
Kingdom Of Madness lessons Tabs too difficult? Try these video lessons and learn fast
                                      Magnum / Kingdom of madness

                   (transcribed in a hurry by mEeK)

Intro:

                                                                        
E||----------------------|----------------------|----------------------|
B||----------------------|----------------------|----------------------|
G||----------------------|----------------------|----------------------|
D||--9-------------------|-------9--------------|------------9---------|
A||--7----x----x----x----|--x----7----x----x----|--x----x----7----x----|
E||--0----0----0----0----|--0----0----0----0----|--0----0----0----0----|


                                      
----------------------|------|------||
----------------------|------|------||
----------------------|------|------||
-------9--------------|------|------||
--x----7----x----x----|------|------||
--0----0----0----0----|------|------||


When the night is on the run....

                                                                        
E||----------------------|----------------------|----------------------|
B||----------------------|----------------------|----------------------|
G||----------------------|----------------------|----------------------|
D||--9-------------------|-------9--------------|------------9---------|
A||--7----x----x----x----|--x----7----x----x----|--x----x----7----x----|
E||--0----0----0----0----|--0----0----0----0----|--0----0----0----0----|


                                                                            
----------------------|------|----------------------|----------------------|
----------------------|------|----------------------|----------------------|
----------------------|------|----------------------|----------------------|
-------9--------------|------|--5-------------------|-------5--------------|
--x----7----x----x----|------|--3----x----x----x----|--x----3----x----x----|
--0----0----0----0----|------|--0----0----0----0----|--0----0----0----0----|


                                                                     
----------------------|----------------------|----------------------|
----------------------|----------------------|----------------------|
----------------------|----------------------|----------------------|
------------5---------|-------5----7---------|-----------------7----|
--x----x----3----x----|--x----3----5----x----|--x----x----x----5----|
--0----0----0----0----|--0----0----0----0----|--0----0----0----0----|


                                                                     
----------------------|----------------------|----------------------|
----------------------|----------------------|----------------------|
----------------------|----------------------|----------------------|
----------------------|--7--------------5----|----------------------|
--x----x----x----x----|--5----x----x----3----|--x----x----x----x----|
--0----0----0----0----|--0----0----0----0----|--0----0----0----0----|


                                            
----------------------|------------|------||
----------------------|------------|------||
----------------------|------------|------||
--5--------------5----|--7----9----|------||
--3----x----x----3----|--5----7----|------||
--0----0----0----0----|--0----0----|------||


Second guitar intro:


E||-----------------|------------|-------------||
B||-----------------|------------|-------------||
G||-------7----9----|--2----4----|--7----9-9---||
D||--5----7----9----|--2----4----|--7----9-9---||
A||--5----5----7----|--0----2----|--5----7-7---||
E||--3--------------|------------|-------------||


Riffs:

E||------------|------------|------------|-----------------|-------|
B||------------|------------|------------|-----------------|-------|
G||--7----5----|--5----7----|--7----5----|--5----7----9----|--7----|
D||--7----5----|--5----7----|--7----5----|--5----7----9----|--5----|
A||--5----3----|--3----5----|--5----3----|--3----5----7----|--x----|
E||------------|------------|------------|-----------------|-------|


                                                                              
------------|-------|------------|------------|----------------------|------||
------------|-------|------------|------------|----------------------|------||
--7----9----|--0----|--7----9----|--2----4----|--7----9----9----9----|------||
--7----9----|--0----|--7----9----|--2----4----|--7----9----9----9----|------||
--5----7----|--x----|--5----7----|--0----2----|--5----7----7----7----|------||
------------|--3----|------------|------------|----------------------|------||


When the night is on the run
and your dreams are almost gone
seas of fire snatch your soul
beast of morning then unfold
in a whirlpool sadness creeps
shadows walk with silent feet
is there something in the air
turns your hope into dispair

Refrain:

                                                                        
E||----------------------|----------------------|----------------------|
B||----------------------|----------------------|----------------------|
G||--5----7----9----7~---|--5----7----9----7~---|--5----7----9~---7----|
D||--5----7----9----7~---|--5----7----9----7~---|--5----7----9~---7----|
A||--3----5----7---------|--3----5----7---------|--3----5----x----5----|
E||----------------------|----------------------|----------------------|

Oh kingdom of madness you've got me undone
oh kingdom of madness you've really begun
oh kingdom of madness you've got me on the run
                                                           
------------|----------------------|----------------------|
------------|----------------------|----------------------|
--5----5----|----------------------|----------------------|
--5----5----|--2----2----4----5----|--0----2----4----2----|
--3----3----|--2-------------------|----------------------|
------------|--0-------------------|----------------------|
 Let ring out-->             


Solo (not time accurate):
                                                                
----------------------|-----------------|----------------------|
----------------------|-----------------|-----------------7----|
------------4---------|-----------------|-------9--------------|
--5----7---------4----|--5----7----5----|--9---------x---------|
----------------------|-----------------|----------------------|
----------------------|-----------------|----------------------|


                                                                               
----------------------|-------|-----------------------|--7--------------------|
--8--------------7----|-------|-------8---------10----|-------8----10----8----|
-------7----9---------|--9----|--9---------x----------|-----------------------|
----------------------|-------|-----------------------|-----------------------|
----------------------|-------|-----------------------|-----------------------|
----------------------|-------|-----------------------|-----------------------|


                                                              
--------12---------14----|--15----------12----14----|--12----|
--12----------x----------|--------15----------------|--------|
-------------------------|--------------------------|--------|
-------------------------|--------------------------|--------|
-------------------------|--------------------------|--------|
-------------------------|--------------------------|--------|


                                                      
--------15----17----19----|--14----15----17----14----|
--17----------------------|--------------------------|
--------------------------|--------------------------|
--------------------------|--------------------------|
--------------------------|--------------------------|
--------------------------|--------------------------|


                                                      
--------------------------|--------------------------|
--15----15----15----15----|--15----13----12----13----|
--------------------------|--------------------------|
--------------------------|--------------------------|
--------------------------|--------------------------|
--------------------------|--------------------------|


                                                                     
--------------------------|--------------14----15----|--15----------|
--15----12----13----15----|--17----17----------------|--------17----|
--------------------------|--------------------------|--------------|
--------------------------|--------------------------|--------------|
--------------------------|--------------------------|--------------|
--------------------------|--------------------------|--------------|


                                                      
--------------------------|--------------------------|
--15----15----15----15----|--15----13----12----13----|
--------------------------|--------------------------|
--------------------------|--------------------------|
--------------------------|--------------------------|
--------------------------|--------------------------|


                                                      
--------------------------|--------------------------|
--15----15----13----12----|--------12----------------|
--------------------------|--14----------14----12----|
--------------------------|--------------------------|
--------------------------|--------------------------|
--------------------------|--------------------------|


                                                      
--------------------------|--------------------------|
--------15----13----12----|--------12----------------|
--11----------------------|--14----------14----12----|
--------------------------|--------------------------|
--------------------------|--------------------------|
--------------------------|--------------------------|


                                                      
--------------------------|--------------------------|
--------15----13----12----|--------12----------------|
--11----------------------|--14----------14----12----|
--------------------------|--------------------------|
--------------------------|--------------------------|
--------------------------|--------------------------|


                                                      
--------------------------|--------------------------|
--------15----13----12----|--------12----------12----|
--11----------------------|--14----------14----------|
--------------------------|--------------------------|
--------------------------|--------------------------|
--------------------------|--------------------------|


                                                                           
--------------------------|------------------------|----------------------|
--13----12----12----10----|--8----10----12----8----|----------------------|
--------------------------|------------------------|--9-------------------|
--------------------------|------------------------|-----------------5----|
--------------------------|------------------------|-------5----7---------|
--------------------------|------------------------|----------------------|


                                                                             
----------------------|----------------------|----------------------|-------|
----------------------|----------------------|----------------------|-------|
-----------------7----|--7h---9----7---------|----------------------|-------|
--7----7/---9---------|-----------------5h---|--7----5--------------|-------|
----------------------|----------------------|------------5h---7----|--5----|
----------------------|----------------------|----------------------|-------|


         
-------||
-------||
--4----||
-------||
-------||
-------||


And bla, bla, bla, bla.......

____________________________________________________________________________

Everyone's laughing at me:


E||----------------------|-----------------||
B||----------------------|-----------------||
G||--2----4----5----4----|--2--------------||
D||--2----4----5----4----|--2---------2----||
A||--0----2----3----2----|--0----x----2----||
E||----------------------|-------0----0----|| (but i'm not laughing!!)


The end:

E||----------------------|------------||
B||----------------------|------------||
G||--7----9----4---------|--4---------||
D||--7----9----4----2----|--4----2----||
A||--5----7----2----2----|--2----2----||
E||-----------------0----|-------0----||




Cya!
            

comments powered by Disqus
↑ Back to top | Magnum Tabs for Kingdom Of Madness. Lyrics for acoustic guitar and electric guitar. Tablatures and chords are parodies/interpretations of the original songs. You may use it for private study, scholarship, research or language learning purposes only