>
 >
Just Like An Arrow

Just Like An Arrow Guitar Tabs

Magnum - Just Like An Arrow chords, tabs, tablatures, lyrics

Guitar lessons | Add/correct | Request | Top 50 tabs Artists:  A B C D E F G H I J K L M N O P Q R S T U V W X Y Z 0-9

Just Like An Arrow Guitar Tabs – Magnum

CD, Sheet music, Poster

Do you like Just Like An Arrow? Share with your friends now
Tabs
                      Magnum / Just like an arrow

                    (transcribed in a hurry by mEeK)
   

                                                                     
E||----------------------|----------------------|----------------------|
B||----------------------|----------------------|----------------------|
G||----------------------|-------2--------------|------------1----2----|
D||----------------------|-------2----1h---2----|--2----4--------------|
A||--x----2~---4~--------|-------0--------------|----------------------|
E||--4--------------0----|--3-------------------|----------------------|


                                                                     
----------------------|----------------------|----------------------|
----------------------|----------------------|----------------------|
--2----4--------------|----------------------|----------------------|
------------2~--------|----------------------|-------7----7----7----|
----------------------|--2----4----4/---6----|-------7----7----7----|
-----------------4----|----------------------|--4----5----5----5----|


                                                                     
----------------------|----------------------|----------------------|
----------------------|----------------------|----------------------|
----------------------|-------4----4----4----|--4----4----4----4----|
--7----7----7----7----|--7----4----4----4----|--4----4----4----4----|
--7----7----7----7----|--7----2----2----2----|--2----2----2----2----|
--5----5----5----5----|--5-------------------|----------------------|


                                   
------------|------------|-------||
------------|------------|-------||
--4---------|------------|--9----||
--4----2----|--2----2----|--9----||
--2----2----|--2----2----|--7----||
-------0----|--0----0----|-------||

                            <--- wammy bar

                                                                        
E||----------------------|----------------------|----------------------|
B||----------------------|----------------------|----------------------|
G||--6----6----6----6----|--6----6----6----6----|--2----2----2----2----|
D||--6----6----6----6----|--6----6----6----6----|--2----2----2----2----|
A||--4----4----4----4----|--4----4----4----4----|--0----0----0----0----|
E||----------------------|----------------------|----------------------|

     <--- We talk endlessly don't get anywhere 

                                                                     
----------------------|----------------------|----------------------|
----------------------|----------------------|----------------------|
--2----2----2----2----|----------------------|----------------------|
--2----2----2----2----|--2----2----2----2----|--2----2----2----2----|
--0----0----0----0----|--2----2----2----2----|--2----2----2----2----|
----------------------|--0----0----0----0----|--0----0----0----0----|


                                                                     
----------------------|----------------------|----------------------|
----------------------|----------------------|----------------------|
----------------------|----------------------|--2----2----2----2----|
--6----6----6----6----|--6----6----6----6----|--2----2----2----2----|
--6----6----6----6----|--6----6----6----6----|--0----0----0----0----|
--4----4----4----4----|--4----4----4----4----|----------------------|


                                                                             
----------------------|----------------------|----------------------|-------|
----------------------|----------------------|----------------------|-------|
--2----2----2---------|--4----4----4----4----|--4----4----4----4----|-------|
--2----2----2----2----|--4----4----4----4----|--4----4----4----4----|--2----|
--0----0----0----0----|--2----2----2----2----|--2----2----2----2----|--2----|
----------------------|----------------------|----------------------|--0----|


                     
------------|------||
------------|------||
--9---9-----|------||
--9---9-----|------||
--7---7-----|------||
------------|------||


                                                                       
E||----------------------|----------------------|----------------------|
B||----------------------|----------------------|----------------------|
G||--2----4----9----6----|--6----4----4----2----|--2----4----4----6----|
D||--2----4----9----6----|--6----4----4----2----|--2----4----4----6----|
A||--0----2----7----4----|--4----2----2----0----|--0----2----2----4----|
E||----------------------|----------------------|----------------------|

     <--- It goes deep my love only for you 
         
-------||
-------||
--4----||
--4----||
--2----||
-------||

  <--- Arrow

E||----------------------|----------------------|----------------------|------||
B||--5--------------5h---|--4-------------------|--4-------------------|------||
G||--4-------------------|-----------------2----|--4-------------------|------||
D||--6---------6---------|------------2----2----|--4----2----2----2----|------||
A||--4-------------------|-------0---------0----|--2----2----2----2----|------||
E||-------4--------------|----------------------|-------0----0----0----|------||

                                                <--- Just like an arrow straight through your heart

                    
                                              x2
E||-----------------------|-------------------||
B||-----------------------|-------9----10-----||
G||--2----9----7----11----|--9----9----9-----*||
D||--2----9----7----9-----|--9----9----9-----*||
A||--0----0----0----0-----|--0----0----0------||
E||-----------------------|-------------------||


                                
E||------------|-------|------||
B||------------|-------|------||
G||------------|--9----|------||
D||--2----2----|--9----|------||
A||--2----2----|--7----|------||
E||--0----0----|-------|------||

                  <--- wammy bar


                                                                        
E||----------------------|----------------------|----------------------|
B||----------------------|----------------------|----------------------|
G||--6----6----6----6----|--6----6----6----6----|--2----2----2----2----|
D||--6----6----6----6----|--6----6----6----6----|--2----2----2----2----|
A||--4----4----4----4----|--4----4----4----4----|--0----0----0----0----|
E||----------------------|----------------------|----------------------|

     <--- We talk endlessly don't get anywhere 

                                                                     
----------------------|----------------------|----------------------|
----------------------|----------------------|----------------------|
--2----2----2----2----|----------------------|----------------------|
--2----2----2----2----|--2----2----2----2----|--2----2----2----2----|
--0----0----0----0----|--2----2----2----2----|--2----2----2----2----|
----------------------|--0----0----0----0----|--0----0----0----0----|


                                                                     
----------------------|----------------------|----------------------|
----------------------|----------------------|----------------------|
----------------------|----------------------|--2----2----2----2----|
--6----6----6----6----|--6----6----6----6----|--2----2----2----2----|
--6----6----6----6----|--6----6----6----6----|--0----0----0----0----|
--4----4----4----4----|--4----4----4----4----|----------------------|


                                                                             
----------------------|----------------------|----------------------|-------|
----------------------|----------------------|----------------------|-------|
--2----2----2---------|--4----4----4----4----|--4----4----4----4----|-------|
--2----2----2----2----|--4----4----4----4----|--4----4----4----4----|--2----|
--0----0----0----0----|--2----2----2----2----|--2----2----2----2----|--2----|
----------------------|----------------------|----------------------|--0----|


Solo:

                                                                      
E||-------|------------|----------------------|----------------------|
B||-------|------------|--5----5----5----7----|--7----7----9----9----|
G||-------|--2----4----|----------------------|----------------------|
D||--2----|--2----4----|----------------------|----------------------|
A||--2----|--0----2----|----------------------|----------------------|
E||--0----|------------|----------------------|----------------------|


                                                                        
-------------------------|----------------------|----------------------|
--9----10----10----10----|--9----9----9----7----|--7----7----9----9----|
-------------------------|----------------------|----------------------|
-------------------------|----------------------|----------------------|
-------------------------|----------------------|----------------------|
-------------------------|----------------------|----------------------|


                                                                     
----------------------|----------------------|----------------------|
--9----7----7----7----|--5----5----5----7----|--7----7----5----5----|
----------------------|----------------------|----------------------|
----------------------|----------------------|----------------------|
----------------------|----------------------|----------------------|
----------------------|----------------------|----------------------|


                                                               
----------------------|-------7~---|--------------------------|
--5----4----4----4----|------------|--16b---16----14----16b---|
----------------------|--4---------|--------------------------|
----------------------|------------|--------------------------|
----------------------|------------|--------------------------|
----------------------|------------|--------------------------|


                                                                              
--------------16----------|------------------------|-------------------------|
--16----14----------------|------------------------|--------------9----10----|
--------------------16----|-------------------9h---|--11h---12---------------|
--------------------------|--9h---11h---12---------|-------------------------|
--------------------------|------------------------|-------------------------|
--------------------------|------------------------|-------------------------|


                                                                              
-------|-----------------------|----------------------|----------------------|
-------|--5----7----9----10----|--9----7----9----7----|--5----7----5----4----|
-------|-----------------------|----------------------|----------------------|
--9----|-----------------------|----------------------|----------------------|
-------|-----------------------|----------------------|----------------------|
-------|-----------------------|----------------------|----------------------|


                                                                   
-------7----|--------------------------|--------------------16----|
------------|--16b---16----14----16b---|--16----14----14----------|
--4---------|--------------------------|--------------------------|
------------|--------------------------|--------------------------|
------------|--------------------------|--------------------------|
------------|--------------------------|--------------------------|


                                                                      
-----------------------|----------------------|----------------------|
------------------5----|------------4---------|-------5--------------|
--16-------------------|----------------------|----------------------|
-------------6---------|-------6--------------|--6--------------6----|
--------4--------------|--4--------------4----|------------4---------|
-----------------------|----------------------|----------------------|


                                          
----------------------|-----------------||
--4-------------------|-----------------||
-------2----4---------|--9----9----9/---||
-------2----4----2----|--9----9----9/---||
-------0----2----2----|--7----7----7/---||
-----------------0----|-----------------||


Yep! Requested and finally tabbed...



Cya all Magnum lovers!





Comments


Popular Magnum tabs & chords
Da Bomb Bass Tabs
Intro Bass Tabs
Red On The Highway Bass Tabs
A Face In The Crowd Chords
Endless Love Tabs
Kingdom Of Madness Tabs
Pray For The Day Live Tabs
Spin Like A Wheel Tabs
A Face In The Crowd Ukulele
Days Of No Trust Ukulele


Song lyrics



↑ Back to top | Tablatures and chords are parodies/interpretations of the original songs. You may use it for private study, scholarship, research or language learning purposes only
© 2014 AZChords.com Contact us | Privacy policy | DMCA | Add/correct tabs | Request tabs | Top 50 tabs