» » »

How Far Jerusalem Tabs (ver.1)

Artists:  A B C D E F G H I J K L M N O P Q R S T U V W X Y Z # 

How Far Jerusalem Tabs (ver.1)

Magnum
Rating:
0/5 (0 votes)

Hard to play? Try these video lessons and learn fast.
                
                     Magnum / How far Jerusalem

                 (transcribed in a very hurry by mEeK)



                                                 
                                                         
E||----------------------|-----------------|----------------------|
B||----------------------|-----------------|----------------------|
G||--4----4----4----4----|------------7~---|--4----4----4----4----|
D||--4----4----4----4----|--7h---9----7~---|--4----4----4----4----|
A||--2----2----2----2----|--7h---9----0----|--2----2----2----2----|
E||--0----0----0----0----|--0--------------|--0----0----0----0----|


                                                                                
----------------------|-------|--3----0----|-----------------|-----------------|
----------------------|-------|--3----0----|-----------------|-----------------|
------------7----7----|--4~---|--0----2----|-----------------|-----------------|
--7h---9----7----7----|--4~---|--0----2----|--2--------------|--2----4----5----|
--7h---9----0----0----|-------|--x----0----|--2----7~---3~---|--2----4----5----|
--0-------------------|-------|--3---------|--0--------------|--0----2----3----|

                                 <---- (They are the victims of the) Night... 
                                  
                                      <--- (Ride against the) Wind...
                                   
----------------------|----------------------|----------------------|
----------------------|----------------------|----------------------|
-------7~---7~--------|----------------------|----------------------|
--2----7~---7~---2----|-------2---------5----|--2---------2----2----|
--2--------------2----|--2---------x---------|-------5---------2----|
--0--------------0----|--0---------0---------|-----------------0----|

How far Jerusalem....
                                                                     
----------------------|----------------------|----------------------|
----------------------|----------------------|----------------------|
-------5----5----7----|--7-------------------|------------7~---7~---|
--2----5----5----7----|--7----2---------4----|--5----2----7~---7~---|
--2----3----3----5----|--5----2----x----4----|--5----2--------------|
--0-------------------|-------0----0----2----|--3----0--------------|

  <--- Before the heart breaks down...               <--- No kings amongst them...

                                                                     
----------------------|----------------------|----------------------|
----------------------|----------------------|----------------------|
----------------------|----------------------|----------------------|
--2---------2---------|--5----2---------2----|--5----5----2----2----|
--2----x--------------|------------5---------|--5----5----2----2----|
--0----0---------0----|----------------------|--3----3----0----0----|

                                                     <--- Cold feet
                                                                        
----------------------|--0----|----------------------|-----------------|
----------------------|--0----|----------------------|-----------------|
--7----7----5----5~---|--4----|----------------------|-----------------|
--7----7----5----5~---|--4----|--9----9----9----9----|--9----7----9----|
--5----5----3----3~---|--2----|----------------------|-----------------|
----------------------|-------|----------------------|-----------------|

  <--- In London town    <--- Oooh, how far Jerusalem...
                                                            
----------------------|-------------|----------------------|
--7----7----7----5----|--8-----5----|----------------------|
--9b---9b---9----7----|--10b---7b---|----------------------|
----------------------|-------------|----------------------|
----------------------|-------------|--9----7----5----7----|
----------------------|-------------|----------------------|


                                                                      
----------------------|----------------------|----------------------||
----------------------|----------------------|----------------------||
----------------------|----------------------|--4----4----4----4----||
----------------------|----------------------|--4----4----4----4----||
--7----5----4----5----|--5----4----2----4----|--2----2----2----2----||
----------------------|----------------------|--0----0----0----0----||

                                        <--- Dive bar!



Just grab the riffs. They are all there but not in the right order (did this one very fast)



Cya!
            
Hard to play? Try these video lessons and learn fast. | Correct




comments powered by Disqus
↑ Back to top | Tablatures and chords are parodies/interpretations of the original songs. You may use it for private study, scholarship, research or language learning purposes only