» » »

Endless Love Tabs (ver.1)

Artists:  A B C D E F G H I J K L M N O P Q R S T U V W X Y Z # 

Endless Love Tabs (ver.1)

Magnum
Rating:
0/5 (0 votes)

Tabs too difficult? Try these video lessons and learn fast.
                






 Hi! Like to share a cool Magnum piece for all you Magnum lovers out here....

--------------------------------------------------------------------------------

 This will sound just like the way Tony Clarkin plays it, if you add synths
 to the song - i have played this one out on pubs and the respons was big so...

 Here it is, Endless love:

  Gtr I

|------------------------------------|
|------------------------------------|
|--------8-7--7-7-5--5-5-7--7-7-5----|
|--------8-8--8-8-6--6-6-8--8-8-5----|
|-----3------------------------------|
|-3h6--------------------------------|


 You're a believer of the wayward call 
 Heavens above what comes with that 
 No crystal gazing on an empty shore 
 Don't dip your eyes don't turn your back 



  Gtr I

|-------------------|
|-------------------|
|-5-8-7----7-7-5----|
|-5-8-8----8-8-6----|
|-------------------|
|-------------------|



  Gtr I

|------------------------------------|
|------------------------------------|
|--------8-7--7-7-5--5-5-7--7-7-5----|
|--------8-8--8-8-6--6-6-8--8-8-5----|
|-----3------------------------------|
|-3h6--------------------------------|




 You make no promises when you break their hearts 
 Your magic power turns them to dust 
 You're off and running long before it starts 
 That's what you do to stay untouched


  Gtr I

|-------------------------------|
|-------------------------------|
|-8-/2--2---2---0--2---4---2----|
|-8-/2--2-5-2-3-0--2-5-4-5-2----|
|---------5---3------5---5------|
|-------------------------------|


 No endless love can't find no endless 
 No endless love can't find no endless love tonight 
 No endless love can't find no endless love 

  Gtr I

|------------------------------------|
|------------------------------------|
|--------8-7--7-7-5--5-5-7--7-7-5----|
|--------8-8--8-8-6--6-6-8--8-8-5----|
|-----3------------------------------|
|-3h6--------------------------------|


 I've turned the corner and there's no one there 
 You've peeled your shadow off the wait 
 I've crossed the border and so please be aware 
 I'm never sure of you at all 


  Gtr I

|-------------------------------|
|-------------------------------|
|-8-/2--2---2---0--2---4---2----|
|-8-/2--2-5-2-3-0--2-5-4-5-2----|
|---------5---3------5---5------|
|-------------------------------|


 No endless love can't find no endless 
 No endless love can't find no endless love tonight 
 No endless love can't find no endless love 


  Gtr I

|-----------------------------------------------|
|-----------------------------------------------|
|-5-5-3------------------------5-3-----3-3-5----|
|-5-5-3--6-6-3---5-3---3-5-3---5-3-6-6-3-3-5----|
|-3-3-1--6-6-3-------6-------6-3-1-6-6----------|
|-----------------------------------------------|



  Gtr I

|-------------------------------|
|-------------------------------|
|-8-/2--2---2---0--2---4---2----|
|-8-/2--2-5-2-3-0--2-5-4-5-2----|
|---------5---3------5---5------|
|-------------------------------|


 No endless love can't find no endless 
 No endless love can't find no endless love tonight 
 No endless love can't find no endless love 



  Gtr I

|-----------------------------------------------------------------|
|-----------------------------------------------------------------|
|-2---4-0-2--2---4-0-2--2---4-0-2--2------------------------------|
|-2-5-4-0-2--2-5-4-0-2--2-5-4-0-2--2-------2-0---0---------2------|
|---5----------5----------5--------0-----------3---3-2-0-3---0----|
|-----------------------------------------------------------------|  The End.


 Okey! Hope i didn't missed anything, i allways get tierd at the end of songs :)

 Magnum rox!

 Bye.

***************************************************************************************
***************************************************************************************
            
Tabs too difficult? Try these video lessons and learn fast.


comments powered by Disqus
↑ Back to top | Tablatures and chords are parodies/interpretations of the original songs. You may use it for private study, scholarship, research or language learning purposes only