» » »

Doors To Nowhere Tabs (ver.1)

Artists:  A B C D E F G H I J K L M N O P Q R S T U V W X Y Z # 

Doors To Nowhere Tabs (ver.1)

Magnum
Rating:
0/5 (0 votes)

Hard to play? Try these video lessons and learn fast.
                MAGNUM – Doors To Nowhere

Intro:
Bm, Asus4, G, Asus4

Riff A:
e--------------|--------------|--------------|--------------|
B--------------|--------------|--------------|--------------|
G--------------|--------------|--------------|--------------|
D-4--2--4------|-7--7--7------|-4--2--4------|--------------|
A-2--0--2------|-5--5--4------|-2--0--2------|-5--5--7------|
E--------------|--------------|--------------|-3--3--5------|

repeat Riff A

Verse 1:
Bm                    D
Up every day, took my clothes off the chair
A                           G
Poured out a drink from the old Frigidaire
Bm                    D
Some magazines by the fire never touched
A                      E
Shiny red step, always cleaned, always brushed

Pre-chorus:
G                                    D
Now those days are gone, gone for us all, they won't return
Bm                               A
Once there was a time, you may recall

Chorus 1 (play Riff 1 twice):
Over the wasteland the full moon would rise
Hot summer nights put the stars in our eyes
Caught in the storm between thunder and rain
Ran down the hillside like we were insane

Chorus 2 (play Riff 2 twice):
Behind doors to nowhere
We hide our childhood dreams
We pass time without care
Deceive when we're not there

Riff 2:
e-------------|--------------|-------------|--------------|
B-------------|--------------|-------------|--------------|
G-------------|--------------|-------------|--------------|
D-------------|-7--7--7------|-------------|--------------|
A-7/9--9------|-5--5--4------|-7/9--9------|-5--5--7------|
E-5/7—-7------|--------------|-5/7--7------|-3--3--5------|

Verse 2:
Bm                               D
Sun blinds pulled down, made the walls tangerine
A                        G
Dancers in white playing their tambourines
Bm                     D
Slow dusty trains disappeared in the haze
A                      E
Coaches arrived at the crowded cafés

repeat Pre-chorus, Chorus 1 and Chorus 2

Bridge:
e-----------------|-----------------|-----------------|-----------------|
B-----------------|-----------------|-----------------|-----------------|
G-----------------|-----------------|-----------------|-----------------|
D-----------------|-----------------|-----------------|-----------------|
A-2-2-2-2-2-2-2-2-|-2-2-2-2-2-2-2-2-|-2-2-2-2-2-2-2-2-|-2-2-2-2-2-2-2-2-|
E-0-0-0-0-0-0-0-0-|-0-0-0-0-0-0-0-0-|-0-0-0-0-0-0-0-0-|-0-0-0-0-0-0-0-0-|
  PM-------------------------------------------------------------------|

e-----------------|-----------------|-----------------|---------------|
B-----------------|-----------------|-----------------|---------------|
G-----------------|-----------------|-----------------|-4------3------|
D-2-----2-----2---|-2-----2-----2---|-2-----2-----2---|-4------4------|
A-2-2-2-2-2-2-2-2-|-2-2-2-2-2-2-2-2-|-2-2-2-2-2-2-2-2-|-4------4------|
E-0-0-0-0-0-0-0-0-|-0-0-0-0-0-0-0-0-|-0-0-0-0-0-0-0-0-|-2------2------|
    PM-|  PM-|  PM    PM-|  PM-|  PM    PM-|  PM-|  PM

Solo rhythm:
play Riff 1 4x

repeat Chorus 1 and Chorus 2

Outro:
e--------------|--------------|--------------|--------------|
B--------------|--------------|--------------|--------------|
G--------------|--------------|--------------|--------------|
D--------------|-7--7--7------|--------------|--------------|
A-7--9--9------|-5--5--4------|-7--9--9------|-5--5--7------|
E-5--7—-7------|--------------|-5--7--7------|-3--3--5------|3x

e--------------|--------------|-------------------|
B--------------|--------------|-------------------|
G--------------|--------------|-------------------|
D--------------|-7--7--7------|-------------------|
A-7--9--9------|-5--5--4------|-7/9--9--7--5------|
E-5--7--7------|--------------|-5/7--7--5--3------|
            
Hard to play? Try these video lessons and learn fast. | Correct




comments powered by Disqus
↑ Back to top | Tablatures and chords are parodies/interpretations of the original songs. You may use it for private study, scholarship, research or language learning purposes only