» » »

Magnum, Before First Light Tabs (ver.1)

Artists:  A B C D E F G H I J K L M N O P Q R S T U V W X Y Z # 

Before First Light Tabs (ver.1)

Magnum Tabs
 Rating:
4/5 (4 votes)
Before First Light lessons Tabs too difficult? Try these video lessons and learn fast
1
                

  
                          Magnum / Before first light 

                  (transcribed in a hurry by mEeK, second attempt)



Every step I take along the way........
                                                                     
E||-------|----------------------|----------------------|----------------------|
B||-------|----------------------|----------------------|----------------------|
G||-------|------------5---------|--7----7--------------|----------------------|
D||--9/---|--2---------5---------|--7----7--------------|------------2---------|
A||--9/---|--2----x----3----x----|--5----5----0---------|-------2----2----x----|
E||--7/---|--0----0---------0----|------------0----2----|--3---------0----0----|


                                               
----------------------|----------------------||
-----------------6----|--6h---5----6h---5----||
--5---------7----5----|--5----5----5----5----||
--5---------7----7----|--7----7----7----7----||
--3----x----5----0----|--0----0----0----0----||
-------0--------------|----------------------||


                                                                        
E||----------------------|------------0----2----|--3----0----0---------|
B||----------------------|------------0----3----|--3----0---------0----|
G||--7----7--------------|------------0----2----|--0----2--------------|
D||--7----7--------------|------------2----0----|--0----2--------------|
A||--5----5----0---------|-------2----2----0----|--x----0--------------|
E||------------0----2----|--3---------0---------|--3-------------------|

                                    --> I stand patiently waiting here.....
                                                                     
-------0--------------|--0--------------0----|------------0---------|
------------0---------|-------0--------------|--0--------------0----|
--2--------------2----|------------2---------|-------2--------------|
----------------------|----------------------|----------------------|
----------------------|----------------------|----------------------|
----------------------|----------------------|----------------------|


                        
-------0--------------||
------------0---------||
--2--------------2----||
----------------------||
----------------------||
----------------------|| Oh, oh!! (and just play as in the beginning....)


                                                                   
E||-------------------------|------------------------|------------|
B||-------------------------|------------------------|------------|
G||-------------------------|------------------------|------------|
D||-------------10----10----|--9---------------------|------------|
A||-------10----------------|-------12----10----9----|--0----7----|
E||--8----------------------|------------------------|--0----0----|


                                                                       
----------------------|----------------------|------------------------|
----------------------|----------------------|------------------------|
----------------------|----------------------|-------------------9----|
-------7b---7----5----|--4---------4----5----|-------------10----9----|
----------------------|-------7--------------|-------10----------7----|
--0-------------------|----------------------|--8---------------------|


              
------------||
------------||
--4---------||
--4---------||
--2----x----||
-------0----||

     --> Dive bomb!


Solo:
                                         How do they tab this?? :)
                                                                   
E||-----------------------|------------|--10b---10b---10b---10b---|
B||------------------8----|--8---------|--------------------------|
G||------------------7----|------9-----|--------------------------|
D||--------2---------0----|------------|--------------------------|
A||--12/---2----x----0----|------------|--------------------------|
E||--12/---0----x---------|------------|--------------------------|


                                                                               
--10b-------------15----|--17----15----------15----|--17----15----------15----|
--------8---------------|--------------17----------|--------------17----------|
-------------9----------|--------------------------|--------------------------|
------------------------|--------------------------|--------------------------|
------------------------|--------------------------|--------------------------|
------------------------|--------------------------|--------------------------|


                                                      
--15----17----19----------|--------------12----------|
--------------------17----|--------12----------15----|
--------------------------|--14----------------------|
--------------------------|--------------------------|
--------------------------|--------------------------|
--------------------------|--------------------------|


                                                                            
--------------------------|-------------------------|----------------------|
--12----------------------|-------------------------|----------------------|
--------14b---14----12----|--------14----12---------|----------------------|
--------------------------|--14---------------------|--4----5---------4----|
--------------------------|--------------------7----|------------7---------|
--------------------------|-------------------------|----------------------|


                                                                           
----------------------|------------15----14----|--15----12----14----------|
----------------------|--8---------------------|--------------------12----|
-----------------7----|-------9----------------|--------------------------|
--5----7----9---------|------------------------|--------------------------|
----------------------|------------------------|--------------------------|
----------------------|------------------------|--------------------------|


                                                                            
-------------------------|----------------------|--------------------------|
--0----------------------|----------------------|--------------------------|
-------12----12----------|--9----9----9----9----|--11----11----11----11----|
-------------------14----|----------------------|--------------------------|
-------------------------|----------------------|--------------------------|
-------------------------|----------------------|--------------------------|


                                                                          
--------------------------|--------------------|-------------15----14----|
--------------------------|--------------------|--12---------------------|
--12----12----12----12----|--14----14----14----|--------9----------------|
--------------------------|--------------------|-------------------------|
--------------------------|--------------------|-------------------------|
--------------------------|--------------------|-------------------------|


                                                                            
--15----12----14----------|-------------------------|----------------------|
--------------------12----|--15---------------------|----------------------|
--------------------------|--------12---------------|----------------------|
--------------------------|--------------14---------|----------------------|
--------------------------|--------------------0----|------------2---------|
--------------------------|--------------------0----|--2----3---------0----|


                                                            
----------------------|----------------------|------------||
----------------------|----------------------|------------||
------------5---------|--7----7--------------|------------||
------------5---------|--7----7--------------|------------||
------------3----x----|--5----5--------------|-------2----||
--2----3---------x----|------------0----2----|--3---------||


And just slightly different....

___________________________________________________________
 

Cya!
            
Submit corrections

comments powered by Disqus
↑ Back to top | Magnum Tabs for Before First Light. Lyrics for acoustic guitar and electric guitar. 1 Tablatures and chords are parodies/interpretations of the original songs. You may use it for private study, scholarship, research or language learning purposes only