» » »

Magnolia Y Los No Me Olvides, Dices Tabs (ver.1)

Artists:  A B C D E F G H I J K L M N O P Q R S T U V W X Y Z # 

Dices Tabs (ver.1)

Magnolia Y Los No Me Olvides Tabs
 Rating:
4/5 (4 votes)
Dices lessons Tabs too difficult? Try these video lessons and learn fast
1
                TqMmMm Mi princessa !!!!

akita 

INTRO:

Guitarra 1: C / F / C / FA

Guitarra 2:
                                       Repetir
                                               C
e|------------------|------------------|------------------|
B|------1----1----1-|-------0----------|------------------|
G|----2----0----0---|-----0---0--------|------------------|
D|--3----2----0-----|---0-------0------|-5-7-5----5--3-2--|
A|------------------|-2-----------2--3-|------------------|
E|------------------|------------------|------------------|

          FA                 C                  FA
e|------------------|------------------|------------------|
B|------------------|------------------|------1----1----1-|
G|----5-7-5---5-2-0-|------------------|----2----0----0---|
D|-3----------------|---5-7-5--5--3-2--|--3----2----0-----|
A|------------------|-2----------------|------------------|
E|------------------|------------------|------------------|


e|------------------|
B|-------0----------|
G|-----0---0--------|
D|---0-------0------|  Repetir desde la Marca
A|-2-----------2--3-|
E|------------------|




  C                   FA                      C
Dices que es mejor callar cuando por primera vez
                 FA       C
salen las cosas bien...
                      FA
dices que es mejor callar
             C                     FA
y ya no preguntar, pues todo se caerá
               Dm                     G
todo todo se caerá, y así toda la verdad
               Dm                           G
aunque yo se también que las mentiras son igual...


CORO:

                  C                G
Lo mejor es que nunca, nunca me podrás cambiar
                      Dm
vete y busca alguien para tratar
                       FA
vete y busca alguien para tratar
                  C                G
Lo mejor es que nunca, nunca me podrás cambiar
                      Dm
vete y busca alguien para tratar
                      FA
vete y busca alguien para tratar...


 C                       FA                      C
Dices que uno es lo que ama y no lo que aun no aman
                    FA           C
yo creo que tienes la razón...
                     FA                       C
Dices que yo tengo miedo de adaptarme al cambio
                            FA          Dm
pues no es miedo es solo negación...
                     G           Dm
yo no soy eso que piensas...
                        G
y mucho menos lo que esperas...



CORO:

                  C                G
Lo mejor es que nunca, nunca me podrás cambiar
                      Dm
vete y busca alguien para tratar
                       FA
vete y busca alguien para tratar
                 C                G
Lo mejor es que nunca, nunca me podrás cambiar
                      Dm
vete y busca alguien para tratar
                      FA
vete y busca alguien para tratar...



e|------------------|------------------|
B|------1----1----1-|-------0----------|
G|----2----0----0---|-----0---0--------|  x2
D|--3----2----0-----|---0-------0------|
A|------------------|-2-----------2----|
E|------------------|------------------|


e|--x----x----x---x-|
B|--1----1----1---x-|
G|--2----0----0---0-|  x2
D|--3----2----0---0-|
A|--x----x----x---2-|
E|--x----x----x---x-|



CORO:
                  C               G
Lo mejor es que nunca, nunca me podrás cambiar
                      Dm
vete y busca alguien para tratar
                      FA
vete y busca alguien para tratar
                  C               G
Lo mejor es que nunca, nunca me podrás cambiar
                      Dm
vete y busca alguien para tratar
                       FA
vete y busca alguien para tratar...



OUTRO:

Guitarra 1: C / FA / C / FA

Guitarra 2:

          C                   FA                 C
e|------------------|------------------|------------------|
B|------------------|------------------|------------------|
G|------------------|----5-7-5---5-2-0-|------------------|
D|--5-7-5----5--3-2-|-3----------------|---5-7-5--5--3-2--|
A|3-----------------|------------------|-2----------------|
E|------------------|------------------|------------------|



          FA
e|------------------|------------------|
B|------1----1----1-|-------0----------|
G|----2----0----0---|-----0---0--------|
D|--3----2----0-----|---0-------0------|   X2 desde inicio
A|------------------|-2-----------2----|
E|------------------|------------------|

                      |
                    Final
                 2da vuelta
            
Submit corrections

comments powered by Disqus
↑ Back to top | Magnolia Y Los No Me Olvides Tabs for Dices. Lyrics for acoustic guitar and electric guitar. 1 Tablatures and chords are parodies/interpretations of the original songs. You may use it for private study, scholarship, research or language learning purposes only