» » »

Magneta Lane, Secrets Aren't So Bad Bass tabs (ver.1)

Artists:  A B C D E F G H I J K L M N O P Q R S T U V W X Y Z # 

Secrets Aren't So Bad Bass tabs (ver.1)

Magneta Lane Tabs
 Rating:
4/5 (4 votes)
Secrets Aren't So Bad lessons Tabs too difficult? Try these video lessons and learn fast
                Artist - Magneta Lane
Song - Secrets Aren't So Bad
Album - Dancing With Daggers
Track - 5
Bassist - French

Intro
G---------------------------------------|
D----------4~~~~~~~~---------7~~~~~~~~--|
A-5~~~~~~~~---------7~~~~~~~~-----------|
E---------------------------------------| x1

G---------------------------------------|
D----------4~~~~~~~~---------7----9754--|
A-5~~~~~~~~---------7~~~~~~~~-----------|
E---------------------------------------| x1

Verse
G-----------------------------------|
D-----------------4444444444444444--|
A-5555555555555555------------------|
E-----------------------------------| x1

G-----------------------------------
D-2222222222222222/77777777799775544
A-----------------------------------|
E-----------------------------------| x1

Repeat Verse

Chorus
G-----------------------------------|
D-----------------------------------|
A-5555555555555555------------------|
E-----------------7777777777777777--| x1

G-----------------------------------|
D-5555555555555555------------------|
A-----------------7777777777777777--| x1
E-----------------------------------|

Repeat Chorus

Bridge
G--------------------------------|
D--------------------------------|
A-5555555555h75-4----------5p4-2-|
E----------------7777777777------|

G----------------------------------|
D-5555555555555555-----------------|
A-----------------7777777777997755-|
E----------------------------------|

Verse 2: Same as Verse 1

Chorus x2

Bridge x1

Ending
G---------------------------------|
D---------------------------------|
A-555-555-555-555-----------------|
E-----------------777-777-777-777-|

G----------------------------------|
D-555-555-555-555-222-222-224422---|
A-------------------------------55-|
E----------------------------------|

G---------|
D---------|
A-5~~~~---
E---------
            
Submit corrections

comments powered by Disqus
↑ Back to top | Magneta Lane Bass for Secrets Aren't So Bad. Lyrics for acoustic guitar and electric guitar. Tablatures and chords are parodies/interpretations of the original songs. You may use it for private study, scholarship, research or language learning purposes only