» » »

Magneta Lane, Broken Plates Bass tabs (ver.1)

Artists:  A B C D E F G H I J K L M N O P Q R S T U V W X Y Z # 

Broken Plates Bass tabs (ver.1)

Magneta Lane Tabs
 Rating:
4/5 (4 votes)
Broken Plates lessons Tabs too difficult? Try these video lessons and learn fast
1
                Artist - Magneta Lane
Song - Broken Plates
Album - Dancing With Daggers
Track - 2
Bassist - French

Guitar Intro

Verse
G-------------------|
D-9-9-10---9-9-10---|
A-------------------|
E-------------------| x2

G-------------------|
D-----9--------9----|
A-1010-----1010-----|
E-------------------| x2

G-------------------|
D-9-9-10---9-9-10---|
A-------------------|
E-------------------| x2

G-------------------|
D-----9--------9----|
A-1010-----1010-----|
E-------------------| x2

G---------------------|
D-9-9-9-10--9-9-9-10--|
A---------------------|
E---------------------| x1

G---------------------|
D-------9--------9----|
A-101010---101010-----|
E---------------------| x1

G------------------
D-7777777777777777-
A------------------|
E------------------| x1

G------------------
D-5555555555555555-
A------------------|
E------------------| x1

G-------------------|
D-/141412129-9-1010-|
A-------------------|
E-------------------| x2

G------------------|
D-121210109-9-1010-|
A------------------|
E------------------| x2

G------------------
D-1212121212121212-
A------------------|
E------------------| x2

Chorus
G-------------------------
D-777777771212121212121212
A-------------------------|
E-------------------------| x1

G--------------------|
D-99999999/333-2-222-|
A--------------------|
E--------------------| x1

G-------------------------
D-777777771212121212121212
A-------------------------|
E-------------------------| x1

G--------------------|
D-99999999/333-2-222-|
A--------------------|
E--------------------| x1

G---445544--445544-|
D-77------55-------|
A------------------|
E------------------| x1

G------------------
D-3333333322222222-
A------------------|
E------------------| x1

G---445544--445544-|
D-77------55-------|
A------------------|
E------------------| x1

G------------------
D-3333333322222222-
A------------------|
E------------------| x1

Guitar

Verse 2: Same as Verse 1

Play Chorus twice

Guitar

Ending
G-------------------|
D-9-9-10---9-9-10---|
A-------------------|
E-------------------| x2

G-------------------|
D-------------------|
A-10~~~~~~~~~~~~~~--
E------------------- x1
            
Submit corrections

comments powered by Disqus
↑ Back to top | Magneta Lane Bass for Broken Plates. Lyrics for acoustic guitar and electric guitar. 1 Tablatures and chords are parodies/interpretations of the original songs. You may use it for private study, scholarship, research or language learning purposes only