» » »

Magneta Lane, Bridge To Terabithia Bass tabs (ver.1)

Artists:  A B C D E F G H I J K L M N O P Q R S T U V W X Y Z # 

Bridge To Terabithia Bass tabs (ver.1)

Magneta Lane Tabs
Rating:
5/5 (1 vote)
Bridge To Terabithia lessons Tabs too difficult? Try these video lessons and learn fast
                Artist - Magneta Lane
Song - Bridge to Terabithia
Album - Dancing With Daggers
Track - 1
Bassist - French

Intro
G---------------------------------|
D---------------------------------|
A---------------------------------|
E-7-7-7-7-7-7-7-7-5-5-5-5-5-5-5-5-| x2

G---------------------------------|
D---------------------------------|
A---------------------------------|
E-2-2-2-2-2-2-2-2-2-2-2-2-2-2-2-2-| x2

G---------------------------------|
D---------------------------------|
A---------------------------------|
E-0-0-0-0-0-0-0-0-0-0-0-0-0-0-0-0-| x2

G---------------------------------|
D---------------------------------|
A---------------------------------|
E-2-2-2-2-2-2-2-2-2-2-2-2-2-2-2-2-| x2

Verse
G---------------------------------|
D---------------------------------|
A---------------------------------|
E-5-5-5-5-5-5-5-5-5-5-5-5-5-5-5-5-| x2

G---------------------------------|
D---------------------------------|
A---------------------------------|
E-2-2-2-2-2-2-2-2-2-2-2-2-2-2-2-2-| x2

G---------------------------------|
D---------------------------------|
A---------------------------------|
E-0-0-0-0-0-0-0-0-0-0-0-0-0-0-0-0-| x2

G---------------------------------|
D---------------------------------|
A---------------------------------|
E-2-2-2-2-2-2-2-2-2-2-2-2-2-2-2-2-| x2

Repeat Verse three more times, but on the last time
omit the last bar

Short rest then same again but an octave higher
G---------------------------------|
D-7-7-7-7-7-7-7-7-7-7-7-7-7-7-7-7-|
A---------------------------------|
E---------------------------------| x2

G---------------------------------|
D---------------------------------|
A-9-9-9-9-9-9-9-9-9-9-9-9-9-9-9-9-|
E---------------------------------| x2

G---------------------------------|
D---------------------------------|
A-7-7-7-7-7-7-7-7-7-7-7-7-7-7-7-7-|
E---------------------------------| x2

G---------------------------------|
D---------------------------------|
A-9-9-9-9-9-9-9-9-9-9-9-9-9-9-9-9-|
E---------------------------------| x2

G-----------------|
D-----------------|
A-9-9-9-9-9-9-9-9-|
E-----------------| x1

Repeat that two more times

Voila!
            

comments powered by Disqus
↑ Back to top | Magneta Lane Bass for Bridge To Terabithia. Lyrics for acoustic guitar and electric guitar. Tablatures and chords are parodies/interpretations of the original songs. You may use it for private study, scholarship, research or language learning purposes only