» » »

22 Tabs (ver.1)

Artists:  A B C D E F G H I J K L M N O P Q R S T U V W X Y Z # 

22 Tabs (ver.1)

Magneta Lane
Rating:
0/5 (0 votes)

Tabs too difficult? Try these video lessons and learn fast.
                e--------------------------------------------]
B--------------------------------------------]
G--------------------------------------------]
D---4-4-4-4-4-4-4-4--6-6-6-6-6-6-6-6---------]
A---2-2-2-2-2-2-2-2--4-4-4-4-4-4-4-4---------]
E--------------------------------------------]

e--------------------------------------------]
B--------------------------------------------]
G--------------------------------------------]
D--------------------------------------------]
A---6-6-6-6-6-6-6-6--1-1-1-1-1-1-1-1---------]
E---4-4-4-4-4-4-4-4--3-3-3-3-3-3-3-3---------]



e--------------------------------------------]
B--------------------------------------------]
G--------------------------------------------]
D--------------------------------------------]
A----5-5-6--4-4-5-------4--------------------]
E-------------------6-6----5-5--3-3----------]
            
Tabs too difficult? Try these video lessons and learn fast.


comments powered by Disqus
↑ Back to top | Tablatures and chords are parodies/interpretations of the original songs. You may use it for private study, scholarship, research or language learning purposes only