» » »

22 Bass tabs (ver.1)

Artists:  A B C D E F G H I J K L M N O P Q R S T U V W X Y Z # 

22 Bass tabs (ver.1)

Magneta Lane
Rating:
0/5 (0 votes)

Hard to play? Try these video lessons and learn fast.
                Artist - Magneta Lane
Song - 22
Album - Dancing With Daggers
Track - 4
Bassist - French

G-----------------------------------|
D-55555555--------88888888----------|
A---------66666666--------88888888--|
E-----------------------------------| x2

G---------------------------------|
D-5---5---5---5---5---5---5---5---|
A---------------------------------|
E---------------------------------| x1

G-----------------------------------|
D-5555555555555555------------------|
A-----------------3333333333333333--|
E-----------------------------------| x1

G---------------------------------|
D---------------------------------|
A-11111111111111115555555555555555
E--------------------------------- x1

Verse
G-----------------------------------|
D-55555555--------88888888----------|
A---------66666666--------88888888--|
E-----------------------------------| x4

Pre-Chorus
G-----------------------------------|
D-5555555555555555------------------|
A-----------------3333333333333333--|
E-----------------------------------| x1

G---------------------------------|
D---------------------------------|
A-11111111111111115555555555555555
E--------------------------------- x1

Chorus
G-----------------------------------|
D-5555555555555555------------------|
A-----------------3333333333333333--|
E-----------------------------------| x1

G---------------------------------|
D---------------------------------|
A-11111111111111115555555555555555
E--------------------------------- x1

Repeat Chorus

Post-Chorus
G-----------------------------------|
D-5555555555555555------------------|
A-----------------6666666666666666--|
E-----------------------------------| x1

G-----------------------------------|
D-8888888888888888------------------|
A-----------------8888888888888888--|
E-----------------------------------| x1

Bridge
G-----------------5-5-5-5-5-5-5-5-|
D-5-5-5-5-5-5-5-5-----------------|
A---------------------------------|
E---------------------------------| x1

G---------------------------------|
D-8-8-8-8-8-8-8-8/121212128-8-7-7-|
A---------------------------------|
E---------------------------------| x1

G-----------------8-8-8-8-8-8-8-8-|
D-5-5-5-5-5-5-5-5-----------------|
A---------------------------------|
E---------------------------------| x1

G-7-7-7-7-7-7-7-7-5-5-5-5---------|
D-------------------------8-8-7-7-|
A---------------------------------|
E---------------------------------| x1

Chorus x1

Ending
G-----------------------------------|
D-5555555555555555------------------|
A-----------------3333333333333333--|
E-----------------------------------| x1

G-----------------------------------|
D-----------------------------------|
A-111111111111111155555555553311----|
E-------------------------------55--| x1

G---------------|
D---------------|
A---------------|
E-3~~~~~~~~~~~~~ x1
            
Hard to play? Try these video lessons and learn fast. | Correct




comments powered by Disqus
↑ Back to top | Tablatures and chords are parodies/interpretations of the original songs. You may use it for private study, scholarship, research or language learning purposes only