» » »

Where Happiness Lives Tabs (ver.1)

Artists:  A B C D E F G H I J K L M N O P Q R S T U V W X Y Z # 

Where Happiness Lives Tabs (ver.1)

Magnet
Rating:
5/5 (1 vote)

Hard to play? Try these video lessons and learn fast.
                
Magnet (Even Johansen) - Where Happiness Lives
 From the album "On Your Side", track 3.
Transcription: Andrew Carter

This transcription is my own work.

The acoustic guitar runs pretty much right through underneath
all the slide and other sounds so it's hard to follow in
places.

This is the only Magnet tab on OLGA as of now, if there are
any other songs from the album which could be tabbed I will
gladly give them a go. Let me know if you find this tab helpful.

Standard Tuning

Intro
E-------3-----0-----|-----------0-----|-----------0-----|-------|
B-------1-------1---|-----1-------1---|-------------1---|-------|
G---------2-------2-|-------0-------0-|-----0---------0-|-------|
D---3-------3-------|-0-2-----2-------|-------3---------|-------|
A-------------------|-----------------|-3-------3-------|-------|
E-------------------|-----------------|-----------------|-------|


                   x4  Verse - It was last October...

E-------------0-----||-----3-----0-----|-----------3-----|------|
B---------------1---||-----1-------1---|-----1-------1---|------|
G-------0---------0-||-------2-------2-|-------0-------0-|------|
D---------3---------||-3-------3-------|-0-2-----2-------|------|
A---3-------3-------||-----------------|-----------------|------|
E-------------------||-----------------|-----------------|------|

E-------------0-----|-----------0-----|-----------0-----|-------|
B-------1-------1---|-----1-------1---|-----3-------3---|-------|
G---------2-------2-|-------2-------2-|-------0-------0-|-------|
D-----------2-------|-0h2-------------|---------0-------|-------|
A---0---------------|---------0-------|-2---------------|-------|
E-------------------|-----------------|-----------------|-------|

E-----0-------------|-----------0-----|-----------0-----|-------|
B-------3-----3-----|-----1-------1---|-----1-------1---|-------|
G---0-----0-----0---|-------2-------2-|-------2-------2-|-------|
D-----------------0-|---------2-------|---------2-------|-------|
A-----------2-------|-0---------------|-0---------------|-------|
E-------------------|-----------------|-----------------|-------|

E-------3-----0-----|-----------0-----|-----------2-----|-------|
B-------1-------1---|-----1-------1---|-----1-------1---|-------|
G---------2-------2-|-------0-------0-|-------2-------2-|-------|
D---3-------3-------|-0-2-----2-------|-0---------------|-------|
A-------------------|-----------------|---------0-------|-------|
E-------------------|-----------------|-----------------|-------|

E-------------2-----|-----------3-----|-----------3-----|-------|
B-------1-------1---|-----3-------3---|-----3-------3---|-------|
G---------2-------2-|-------0-------0-|-------0-------0-|-------|
D---0---------------|---------0-------|---------0-------|-------|
A-----------0-------|-----------------|-----------------|-------|
E-------------------|-3---------------|-3---------------|-------|


                                     x2   Chorus
E-------------0-----|-----------0-----||-----------0-----|------|
B-------1-------1---|-----1-------1---||-----6-------6---|------|
G---------0-------0-|-------0-------0-||-------7-------7-|------|
D-----------2-------|---------2-------||---------7-------|------|
A---3---------------|-3---------------||-5---------------|------|
E-------------------|-----------------||-----------------|------|

E-------------0-----|-----------0-----|-----------0-----|-------|
B-------6-------6---|-----1-------1---|-----3-------3---|-------|
G---------7-------7-|-------0-------0-|-------0-------0-|-------|
D-----------7-------|-----------------|-----------------|-------|
A---5---------------|-3-------3-------|-2-------2-------|-------|
E-------------------|-----------------|-----------------|-------|

E-------------0-----|-----------0-----|-----------0-----|-------|
B-------1-------1---|-----1-------1---|-----1-------1---|-------|
G---------2-------2-|-------2-------2-|-------2-------2-|-------|
D---3-------3-------|-3-------3-------|-----------------|-------|
A-------------------|-----------------|-0-------0-------|-------|
E-------------------|-----------------|-----------------|-------|


                       There's a million miles....

E-------------0-----|-----------0-----|-----------0-----|-------|
B-------1-------1---|-----6-------6---|-----6-------6---|-------|
G---------2-------2-|-------7-------7-|-------7-------7-|-------|
D-------------------|---------7-------|---------7-------|-------|
A---0-------0-------|-5---------------|-5---------------|-------|
E-------------------|-----------------|-----------------|-------|

E-------------0-----|-----------0-----|-----------0-----|-------|
B-------1-------1---|-----3-------3---|-----1-------1---|-------|
G---------0-------0-|-------0-------0-|-------2-------2-|-------|
D-------------------|-----------------|-3-------3-------|-------|
A---3-------3-------|-2-------2-------|-----------------|-------|
E-------------------|-----------------|-----------------|-------|

E-------------0-----|-----------0-----|-----------0-----|-------|
B-------1-------1---|-----1-------1---|-----1-------1---|-------|
G---------2-------2-|-------2-------2-|-------2-------2-|-------|
D---3-------3-------|-----------------|-----------------|-------|
A-------------------|-0-------0-------|-----------------|-------|
E-------------------|-----------------|-3-------3-------|-------|


                                          Echo: Where happiness...

E-------------0-----|-----------0-----|-----------0-----|-------|
B-------1-------1---|-----1-------1---|-----1-------1---|-------|
G---------2-------2-|-------2-------2-|-------2-------2-|-------|
D-------------------|-----------------|-----------------|-------|
A-------------------|-----------------|-0-------0-------|-------|
E---2-------2-------|-2-------2-------|-----------------|-------|

E-------------0-----|-----------0-----|-----------0-----|-------|
B-------1-------1---|-----1-------1---|-----1-------1---|-------|
G---------2-------2-|-------2-------2-|-------2-------2-|-------|
D-------------------|-----------------|-----------------|-------|
A-------------------|-----------------|-----------------|-------|
E---3-------3-------|-2-------2-------|-2-------2-------|-------|

E-------------3-----|-----------3-----|-----------0-----|-------|
B-------1-------1---|-----1-------1---|-------------1---|-------|
G---------2-------2-|-------2-------2-|-----0---------0-|-------|
D-------------------|-----------------|-------3---------|-------|
A-------------------|-----------------|-3-------3-------|-------|
E---1-------1-------|-1-------1-------|-----------------|-------|

E-------------0-----|-----------0-----|-----------0-----|-------|
B---------------1---|-------------1---|-------------1---|-------|
G-------0---------0-|-----0---------0-|-----0---------0-|-------|
D---------3---------|-------3---------|-------3---------|-------|
A---3-------3-------|-3-------3-------|-3-------3-------|-------|
E-------------------|-----------------|-----------------|-------|


Repeat verse and chorus to finish.

This song is simple chords played fingerstyle, so I've
written the chords below for those who wish to strum instead!

Chords

FMaj7:	C/E:	Csus4:	Am:	G/B:	D7:	C:	G:
e- 0    e- 0    e- 0    e- 0    e- 0    e- 2    e- 0    e-3-|
B- 1    B- 1    B- 1    B- 1    B- 3    B- 1    B- 1    B-3-|
G- 2    G- 0    G- 0    G- 2    G- 0    G- 2    G- 0    G-0-|
D- 3    D- 2    D- 3    D- 2    D- 0    D- 0    D- 2    D-0-|
A-     A-     A- 3    A- 0    A- 2    A-     A- 3    A-2----|
E-     E-     E-     E-     E- 0    E-     E-     E-3-------|

Dm9:	Am/G:	Am/F#:
e- 0    e- 0    e- 0-|
B- 6    B- 1    B- 1-|
G- 7    G- 2    G- 2-|
D- 7    D- 2    D- 2-|
A- 5	A- 	A- 0
E- 	E- 3	E- 2

Intro

|Fmaj7	|C/E	|Csus4	|	|x4

Verse

|Fmaj7	|C/E	|Am	|	|
|G/B	|	|Am	|	|
|Fmaj7	|C/E	|D7	|	|
|G	|	|C	|	|x2

Chorus

|Dm9	|	|C	|G/B	|
|Fmaj7	|	|Am	|	|
|Dm9	|	|C	|G/B	|
|Fmaj7	|	|
|Am	|Am/G	|Am/F#	|	|
|Am	|Am/G	|Am/F#	|	|
|Fmaj7	|	|
|Csus4	|	|	|	|

The second verse and chorus and slightly extended, but there are
no new chords.
            
Hard to play? Try these video lessons and learn fast. | Correct




comments powered by Disqus
↑ Back to top | Tablatures and chords are parodies/interpretations of the original songs. You may use it for private study, scholarship, research or language learning purposes only