» » »

Magnet, Nothing Hurts Now Tabs (ver.1)

Artists:  A B C D E F G H I J K L M N O P Q R S T U V W X Y Z # 

Nothing Hurts Now Tabs (ver.1)

Magnet Tabs
 Rating:
4.5/5 (8 votes)
Nothing Hurts Now lessons Tabs too difficult? Try these video lessons and learn fast
                Magnet is a Norwegian singer/songwriter about to be promoted in the rest of the world
with his great debut album 'On Your Side'. This song is from the aforementioned album


intro

e |--------------------------------2-------------0--------|
B |-------8---10-------------------3-----3---2h3---2p3----|
g |-----------7--------7-----------------0---2------------|
D |-----9----------7h9---9-------0-----0------------------|
A |---9--------------------9---------------0--------------|
E |-7-------7----7-----------0-3-----3--------------------|

e |--------------------------------2-------------0--------|
B |-------8---10---10------7-------3-----3---2h3---2p3----|
G |-------7---7----------7---------------0---2------------|
D |---9------------9---9---------0-----0------------------|
A |--------------------------9-------------0--------------|
E |-7---7---7----7---7---------3-----3--------------------|

e |---2-2----------------------|
B |---3-3---3-3----3---3-------|
G |---2-2---2-2----0h2-0---2-2-|
D |-0------------0---------4-0-|
A |-------0--------------0-----|
E |----------------------------|

fig. 1                                                   

E |---2-2---------------------|    
B |---3-3---3-3---3---3-------|    
G |---2-2---2-2---0h2-0---2-2-|    
D |-0-----------0---------4-0-|    
A |-------0-------------0-----|    
E |---------------------------|    


fig. 2

E |--------------------------|
B |-------8--7---------7-----|
G |-------7--7-----------7---| 
D |-----9------------9-----9-|
A |---9------------9---------| 
E |-7-------7----7-----------| 


fig. 3 (use on all Asus9)

E |-------0-------|
B |---2h3---3p2---|
G |---------------|
D |---------------|
A |-0-------------|
E |---------------|

D/G          : 3-x-0-0-3-2
Em/D         : 0-2-2-0-3-2
A            : 0-0-2-2-2-0
Asus9        : 0-0-2-2-3-0
F#m          : 2-4-4-2-2-2
Bm/G         : 7-9-9-7-8-7
Bm           : 7-9-9-7-7-7
Bm/A         : 7-9-9-7-10-7



intro

   D/G                         Em/D       A        Asus9  A (w/ fig. 3)
There was a time, you make me believe,    that I'd receive
F#m                  D/G                       A  Asus9
Something that would hold, & wouldn't leave me cold
  D/G                          Em/D
& there was a line you made me cross,
A          Asus9  F#m                         D/G
So the two of us would have the strength to bear,
    Em/D
The crosses we couldn't share
              D/G     Asus9    A     Bm/G   Bm (w/ fig.2)
But nothing hurts now, that didn't hurt before
              D/G       Asus9 A      F#m        Bm 
So I won't pretend that it was the end of the world
              D/G         Asus9 A     D (w/ fig. 1)
Cause nothing hurts now




There was a time, I made you smile, & for a while
I was beautiful to you, I was beautiful like you
But these things often pass, & for you they just wouldn't last
So I was first to know, when you had to go

But nothing hurts now, that didn't hurt before
So I won't pretend that it was the end of the world
Cause nothing hurts now

No, nothing hurts now, that didn't hurt before
So I won't pretend that it was the end of the world
Cause nothing hurts now

            D (w/ fig. 1) 
No, nothing hurts now

End on D
            
Submit corrections

comments powered by Disqus
↑ Back to top | Magnet Tabs for Nothing Hurts Now. Lyrics for acoustic guitar and electric guitar. Tablatures and chords are parodies/interpretations of the original songs. You may use it for private study, scholarship, research or language learning purposes only