» » »

Slowly, Slowly Tabs (ver.2)

Artists:  A B C D E F G H I J K L M N O P Q R S T U V W X Y Z # 

Slowly, Slowly Tabs (ver.2)

Magnapop
Rating:
0/5 (0 votes)

Hard to play? Try these video lessons and learn fast.
                SLOWLY, SLOWLY


B|-----------------------|-----------------------|
G|--------------7-7-7-9--|--------------7-7-7-9--|
D|--12-12-12-12-7-7-7-9--|--12-12-12-12-7-7-7-9--|
A|--12-12-12-12-5-5-5-7--|--12-12-12-12-5-5-5-7--|
E|--10-10-10-10----------|--10-10-10-10----------|



pm......................
B|----------------------|
G|----------------------|
D|----------------------|
A|----7----7----9----9--|
E|--55-5-55-5-77-7-77-7-|

pm............................................
B|--------------------------------------------|
G|--------------------------------------------|
D|--------------------------------------------|
A|------12---------12---------12---------12---|
E|-10-10--10--10-10--10--10-10--10--10-10--10-|


                           harmonics...
B|----------------|-------------------------|
G|---------777777-|-------------------------|
D|---77777-777777-|--77777----<7>-----<7>---|
A|---77777-555555-|--77777--<7>-<7>-<7>-<7>-|
E|---55555--------|--55555------------------|


that's it i believe.  hope you enjoy.


"Dare to be honest, be yourself.  A cowardly man......"  -=Korn=-

                           FVGAZI.
            
Hard to play? Try these video lessons and learn fast. | Correct




comments powered by Disqus
↑ Back to top | Tablatures and chords are parodies/interpretations of the original songs. You may use it for private study, scholarship, research or language learning purposes only