» » »

Idiot Song Tabs (ver.1)

Artists:  A B C D E F G H I J K L M N O P Q R S T U V W X Y Z # 

Idiot Song Tabs (ver.1)

Magnapop
Rating:
0/5 (0 votes)

Hard to play? Try these video lessons and learn fast.
                
Here is Magnapop's Idiot Song, track 11 on Hot Boxing.


IDIOT SONG

  pm...........|           pm...........|
B|------------------------|------------------------|
G|---------------9-9/1111-|---------------9-9/1111-|
D|------------77-7-7/9-9--|------------77-7-7/9-9--|
A|----99---77-55----------|----99---77-55----------|
E|--0-77-0-55-------------|--0-77-0-55-------------|



B|-------------------|-----------------|
G|----------------9--|----9-7----------|
D|--7-7-7-7-7-7-7-9--|--------9-7------|
A|--7-7-7-7-7-7-7-7--|------------9-7--|
E|--5-5-5-5-5-5-5----|-----------------|



mail complaints/improvements/marriage proposals to:

"Dare to be honest, be yourself.  A cowardly man......"  -=Korn=-

                           FVGAZI.

__________________________________________________________________________
            
Hard to play? Try these video lessons and learn fast. | Correct




comments powered by Disqus
↑ Back to top | Tablatures and chords are parodies/interpretations of the original songs. You may use it for private study, scholarship, research or language learning purposes only