>
 >
Ice

Ice Guitar Tabs

Magic Dirt - Ice chords, tabs, tablatures, lyrics

Guitar lessons | Add/correct | Request | Top 50 tabs Artists:  A B C D E F G H I J K L M N O P Q R S T U V W X Y Z 0-9

Ice Guitar Tabs – Magic Dirt

CD, Sheet music, Poster

Do you like Ice? Share with your friends now
Tabs
----------------------------------------------------------------------------
----------------------------------------------------------------------------

Tuning: Standard

This song is really simple, just make sure you play it with lots of distortion and let 
ring considerably. The bass has a much stronger role in the piece than the guitars 
do, even though it seems the bass is overpowered by the guitars.

*RIFF 1: Verses, Intro
e|-----------|
B|-----------|
G|-----------|
D|--4-4-242--|
A|--4-4-242--|
E|-----------| x(as many times necessary)
NB: Alternatively, you can play this as your usual Gb5 & E5 chords to the same rhythm, 
it sounds to be more like the version above.

*RIFF 2: Verse, after the first riff has been played.
e|-----------|
B|-----------|
G|------7-9--|
D|--2-7-7-9--|
A|--2-7-5-7--|
E|--0-5------|

*RIFF 3: Chorus - "Am I, Wasting, All My Time?"
e|---------|
B|---------|
G|--6-4----|
D|--6-4-2--|
A|--4-2-2--|
E|------0--|

END.

============================================================================





Comments


Popular Magic Dirt tabs & chords
These Drugs Are Really Starting To Fuck Me Over Bass Tabs
Dirty Jeans Tabs
For A Second Tabs
Plastic Loveless Letter Tabs
Watch Out Boys Tabs


Song lyrics



↑ Back to top | Tablatures and chords are parodies/interpretations of the original songs. You may use it for private study, scholarship, research or language learning purposes only
© 2014 AZChords.com Contact us | Privacy policy | DMCA | Add/correct tabs | Request tabs | Top 50 tabs