» » »

Magic Dirt, For A Second Tabs (ver.1)

Artists:  A B C D E F G H I J K L M N O P Q R S T U V W X Y Z # 

For A Second Tabs (ver.1)

Magic Dirt Tabs
 Rating:
4/5 (4 votes)
For A Second lessons Tabs too difficult? Try these video lessons and learn fast
                Tuning: Drop to D

Intro/verse 1

Guitar 1
e----1/3-3------------------------------------|
B----------3/5-5-------------(X6)-------------|
G---------------------------------------------|
D---------------------------------------------|
A---------------------------------------------|
D---------------------------------------------|

Guitar 2 (background following)
e---------------------------------------------------|
B---------------------------------------------------|
G----0-2-0---2--------------------------------------|
D--3-------3----------------------------------------|
A---------------------------------------------------|
D---------------------------------------------------|
Nothing to say, nothing to do...
Lost for words, just like you...

Bridge (1:01)
Guitar 1
e---17--15--13--12--12b13--12----12----12/-------------|
B-----------------------------------------------(x4----|
G-----------------------------12----12-----------------|
D------------------------------------------------------|
A------------------------------------------------------|
D------------------------------------------------------|
Finding you lying there quite, all in the name of science...
Finding you lying there quite, all in the name of science...

Verse 2 (Repeat Intro/verse 1)
Guitar 1

Your's was good mine was bad...
Made me pure, mad me mad...

Guitar 1 (repeat Bridge 1:59)

Guitar 2
e-------------------------------------------------------------------------|
B-------------------------------------------------------------------------|
G-------------------------------------------------------------------------|
D-10-10-10-10-10-10-10-10-------8-8-8-8-8-8-8-8---------------------------|
A-10-10-10-10-10-10-10-10-------8-8-8-8-8-8-8-8--------(x4)---------------|
D-10-10-10-10-10-10-10-10-------8-8-8-8-8-8-8-8---------------------------|
Finding you lying there quite, all in the name of science...
Finding you lying there quite, all in the name of science...

e-------------------------------------------|
B-------------------------------------------|
G-------------------------------------------|
D---8-8-8-8-8-8-8-8-------------------------|
A---8-8-8-8-8-8-8-8-------------------------|
D---8-8-8-8-8-8-8-8-------------------------|
The front of you is the back of me

Chorus (2:30)
e----------------------------------------------------|
B----------------------------------------------------|
G----------------------------------------------------|
D-3-3-3-3--0-0-0-0--8-8-8-8-8-8-8-8------------------|
A-3-3-3-3--0-0-0-0--8-8-8-8-8-8-8-8-------(x4)-------|
D-3-3-3-3--0-0-0-0--8-8-8-8-8-8-8-8------------------|
Can't leave you even for a second now
Can't leave you even for a second now
Can't leave you even for a second now
Can't leave you even for a second...

e--------------------------------------------------------------------------|
B--------------------------------------------------------------------------|
G--------------------------------------------------------------------------|
D--5-5-5-5--7-7-7-7--8-8-8-8-8-8-8-8---------------------------------------|
A--5-5-5-5--7-7-7-7--8-8-8-8-8-8-8-8------(x2)-----------------------------|
D--5-5-5-5--7-7-7-7--8-8-8-8-8-8-8-8---------------------------------------|
The front of you is the back of me,
can't you see...
The front of you is the back of me,
can't you see...

(3:07) Repeat Intro/verse 1
Your's was good mine was bad...
Made me pure, mad me mad...

Guitars 1&2 (Repeat bridge 3:38)

Guitars 1&2 (Repeat Chorus 4:06)

Guitar 2
Solo(4:42)
e------------------------------------------------------------------------|
B--6-5-6---3-6--9b10-8-6r-------6-5-6--3---------------------------------|
G--------5---------------------------5---5--3-2-3--2---------------------|
D----------------------------------------------------3-5-3---------------|
A----------------------------------------------------------5-3-5--3------|
D------------------------------------------------------------------------|

e-------------------------------------------------------------------------|
B--------------------------------------10-13-15-13-15/18--22-22-18r-20-22-|
G-------------------------9h10p9-10-12------------------------------------|
D----3-5-3--7/8/7-7-8-----------------------------------------------------|
A-------------------------------------------------------------------------|
D-------------------------------------------------------------------------|

(5:07)
e-------------------------------------------|
B-------------------------------------------|
G-------------------------------------------|
D---8-8-8-8-8-8-8-8-------------------------|
A---8-8-8-8-8-8-8-8-------------------------|
D---8-8-8-8-8-8-8-8-------------------------|

The front of you is the back of me

(Chorus)
e----------------------------------------------------|
B----------------------------------------------------|
G----------------------------------------------------|
D-3-3-3-3--0-0-0-0--8-8-8-8-8-8-8-8------------------|
A-3-3-3-3--0-0-0-0--8-8-8-8-8-8-8-8-------(x4)-------|
D-3-3-3-3--0-0-0-0--8-8-8-8-8-8-8-8------------------|

Can't leave you even for a second now
Can't leave you even for a second now
Can't leave you even for a second now
Can't leave you even for a second...

There's a second guitar playing in the background for the last minute but i can't be 
figuring it out... Any corrections etc welcome, have fun!!
Cath
            
Submit corrections

comments powered by Disqus
↑ Back to top | Magic Dirt Tabs for For A Second. Lyrics for acoustic guitar and electric guitar. Tablatures and chords are parodies/interpretations of the original songs. You may use it for private study, scholarship, research or language learning purposes only