» » »

Magazine, Shot By Both Sides Tabs (ver.2)

Artists:  A B C D E F G H I J K L M N O P Q R S T U V W X Y Z # 

Shot By Both Sides Tabs (ver.2)

Magazine Tabs
Rating:
5/5 (4 votes)
Shot By Both Sides lessons Tabs too difficult? Try these video lessons and learn fast
                (Intro)
Shot by both sides guitar Intro
By Magazine



E|--------------------------------------------------------|
B|--------------------------------------------------------|
G|--------------------------------------------------------|
D|--------------------------------------------------------|
A|---------------------9--------11------13--14--15--------|
E|---9------11--12----------------------------------------|

       C#m                               G#5                              



E|------------------------------------------------------------|
B|------------------------------9-----------------------------|
G|----------------------11-----11b13--------------------------|
D|--11-----13--14---------------------------------------------|
A|------------------------------------------------------------|
E|------------------------------------------------------------|

        F#                                 C#m


(The last note in this phrase is a unison bend 
– you play the B and the G strings together and
 then bend the F# up to the pitch of the G#.)
            
Submit corrections

comments powered by Disqus
↑ Back to top | Magazine Tabs for Shot By Both Sides. Lyrics for acoustic guitar and electric guitar. Tablatures and chords are parodies/interpretations of the original songs. You may use it for private study, scholarship, research or language learning purposes only