» » »

Magazine, Shot By Both Sides Bass tabs (ver.1)

Artists:  A B C D E F G H I J K L M N O P Q R S T U V W X Y Z # 

Shot By Both Sides Bass tabs (ver.1)

Magazine Tabs
Rating:
5/5 (1 vote)
Shot By Both Sides lessons Tabs too difficult? Try these video lessons and learn fast
                -------------------------------------------------------------------------------
-------------------------------------------------------------------------------

although im sure they're accurate

Tuning: EADG

Intro and chorus riff 'Shot, by Both Sides'
G|---------------------------------------------------------------------------|
D|---------------------------------------------------------------------------|
A|-2/44444244244242------2--2-444-------2--2---244444444---------------------|
E|-----------------444444-44------222222-22-224------------------------------|

Verse 'This and that, they must be the same'
G|---------------------------------------------------------------------------|
D|--------------------2------------------------------------------------------|
A|-444-2-2-2-444-2-2-2--444-2-2-2-444-2-2------------------------------------|
E|------4-4-------4-4--------4-4-------4-4-----------------------------------|

Bridge 'i'll only lose myself in the crowd'
G|---------------------------------------------------------------------------|
D|---------------------------------------------------------------------------|
A|---------------------------------------------------------------------------|
E|-22222222222222222222222222222222------------------------------------------|

Guitar solo part 1
G|---------------------------------------------------------------------------|
D|--------------6666-------------2222-------------6666767676767--------------|
A|-555555778888-----0000000223333-----555555778888---------------------------|
E|---------------------------------------------------------------------------|
Guitar Solo part 2
G|-------------------------11-11{hold}--|
D|-----5-6-8-9-10-11-13-14--------------|
A|-4-67---------------------------------|
E|--------------------------------------|

Outro
G|---------------------------------------------------------------------------|
D|---------------------------------------------------------------------------|
A|-222-4444444-222-44444444-222-44444444-222-4[Hold]-------------------------|
E|---------------------------------------------------------------------------|
Structure

Intro x2
Verse x2
Bridge x1
Chorus x2
Verse x2
Bridge x1
Chorus x2
Guitar Solo part 1 x1
Guitar solo part 2 x1
Verse x2
Bridge x5
Chorus x2
Outro x1

| /  slide up
| \  slide down
| h  hammer-on
| p  pull-off
| ~  vibrato
| +  harmonic
| x  Mute note
=d=====o=====n=====g=====s=====================================================
            
Submit corrections

comments powered by Disqus
↑ Back to top | Magazine Bass for Shot By Both Sides. Lyrics for acoustic guitar and electric guitar. Tablatures and chords are parodies/interpretations of the original songs. You may use it for private study, scholarship, research or language learning purposes only