» » »

Mae, Two Birds Tabs (ver.1)

Artists:  A B C D E F G H I J K L M N O P Q R S T U V W X Y Z # 

Two Birds Tabs (ver.1)

Mae Tabs
 Rating:
4/5 (4 votes)
Two Birds lessons Tabs too difficult? Try these video lessons and learn fast
                -------------------------------------------------------------------------------
-------------------------------------------------------------------------------

Tuning: Standard Capo 2

e|---------------------------------------------------------------------------|
B|--------------2------------------------------------2-----------------------|
G|------2------------2----4p2----4p2-----------2----------2------4/6---------|
D|--0-------0----------------------------0---------0-------------------------|
A|---------------------------------------------------------------------------|
E|---------------------------------------------------------------------------|

e|---------------------------------------------------------------0-----------|
B|------------------2--------------------------------------------------------|
G|---------2-------------2-----4p2-----4p2------------2------------2--1--1h2-|
D|--------------2--------------------------------------------2---------------|
A|----0-------------------------------------------0--------------------------|
E|---------------------------------------------------------------------------|

************************************

| /   slide up
| \   slide down
| h   hammer-on
| p   pull-off
| ~   vibrato
| +   harmonic
| x   Mute note
| b   Bend
| pb  Pre-bend
| br  Bend release
| pbr Pre-bend release
| brb Bend release bend

************************************
            
Submit corrections

comments powered by Disqus
↑ Back to top | Mae Tabs for Two Birds. Lyrics for acoustic guitar and electric guitar. Tablatures and chords are parodies/interpretations of the original songs. You may use it for private study, scholarship, research or language learning purposes only