>
 >
 >
Tisbury Lane

Tisbury Lane Bass Tabs

Mae - Tisbury Lane chords, tabs, tablatures, lyrics

Guitar lessons | Add/correct | Request | Top 50 tabs Artists:  A B C D E F G H I J K L M N O P Q R S T U V W X Y Z 0-9

Tisbury Lane Bass Tabs – Mae

CD, Sheet music, Poster

Do you like Tisbury Lane? Share with your friends now
Bass TabsChordsTabsTabs v2Tabs v3Tabs v4Ukulele
Bassist: Mark Padgett

Surprised this wasn't tabbed yet, very fun song to play.  The bass comes in at about 2:27.

Key:
~: Let Note Ring
h: Hammer-On
/: Slide Up
x: Stop quickly


Verse:
("No one can know" ... "To learn with the others")
G|----------------------------------------------------------|
D|--------------------6-6---6---4~--------------------------|
A|-4-----4x--------4------4---4-------2---4-----2~--2-3-2---|
E|---4-0----0h2h4~-----------------4----2~---4------------4-|


Chorus:
("Do do do do...")
G|------9-------------------------------------------------------------|
D|--------11--------6~------------------4~----------------------------|
A|-4~-------------4---------4---------4---------2-------5-3-2~--3-2---|
E|------------4-6-------4-6---4~--4-6-------2-4---2~--2-------------4-|

Chorus Ending:
("...Do do")
G|-----9---------------------------------------------------------------------|
D|-------11--------6~-------------------4~-----------------------4---4-------|
A|-4~------------4---------4----------4---------2--------5-3-2~----3---3-2---|
E|-----------4-6-------4-6----4~--4-6-------2-4---2~--2--------------------4-|


Verse:
("Please don't give up" ... "Constantly everything you need")
G|----------------------------------------------------------|
D|--------------------6-6---6---4~--------------------------|
A|-4-----4x--------4------4---4-------2---4-----2~--2-3-2---|
E|---4-0----0h2h4~-----------------4----2~---4------------4-|


Chorus Two:
("Will you come back" ... "That's what I'm praying for")
G|--------9---------------------------------------------------------------|
D|----6~----11--------6~-----------------4~-------------------------------|
A|-4----------------4--------4---------4---------2--------4---2~--2-3-2---|
E|-------------4-6-------4-6---4~--4-6-------2-4---2~--2----2-----------4-|


Post-Chorus:
G|-------------------6~----------------------------------------------|
D|-----4---------4-6-------------------------------4----------/9-7---|
A|------------------------4~--4~-----------------------------------7-|
E|-2-2----2-4-5---------4---4-----0h2h4~--4-4-3-2~----2-4-5~---------|

Post Chorus Ending:
G|---------------------------------------|
D|---------------------------------------|
A|-4~---44-------------------------------|
E|----4----0h2h4~--4-2-0-2~--2~--2~--2~--|


Bridge Part One:
("She lives on Tisbury Lane")
G|-------9----------------------------------------------------------|
D|-----6---11-------6--------6---6---4----------------4---4---------|
A|-4-6------------4---6--------4---4---4-0-----4---22---2---2-3-2---|
E|------------4-6-------7-4----------------222---2----------------4-|

Bridge Part Two:
G|--------------------------------------------------------|
D|-----------------------------4--------------------------|
A|-4-----4-------6-----6-----4---4-0-----4-2~-----2-3-2---|
E|---4-0---0-2-4---2-4---4-6---------2~-------2-4-------4-|

Bridge Ending:
G|-----------------------------------------------------------|
D|--------------------------6----6---4~----------------------|
A|-4~----4~-----------6---4---4----4------2---4-222-3-2---4~-|
E|---4-0----0-2-4~--4---4---------------4---2-----------4----|

BREAK

Ending:
G|-------------------------------------------|
D|-------------------------------------------|
A|-3-2----4~------------4------4-2-3-2----4~-|
E|------4-----0h2h4~--4---2~-2---------4-----|





Comments


Popular Mae tabs & chords
Embers And Envelopes Chords
On Top Chords
Release Me Chords
Singularity Chords
Someone Else's Arms Chords
Futuro (Live) Tabs
Ready And Waiting To Fall 1 Tabs
Sun Tabs
Suspension 1 Tabs
Suspension 2 Tabs


Song lyrics



↑ Back to top | Tablatures and chords are parodies/interpretations of the original songs. You may use it for private study, scholarship, research or language learning purposes only
© 2014 AZChords.com Contact us | Privacy policy | DMCA | Add/correct tabs | Request tabs | Top 50 tabs