>
 >
 >
Sometimes I Can't Make It Alone

Sometimes I Can't Make It Alone Guitar Tabs

Mae - Sometimes I Can't Make It Alone chords, tabs, tablatures, lyrics

Guitar lessons | Add/correct | Request | Top 50 tabs Artists:  A B C D E F G H I J K L M N O P Q R S T U V W X Y Z 0-9

Sometimes I Can't Make It Alone Guitar Tabs – Mae

CD, Sheet music, Poster

Do you like Sometimes I Can't Make It Alone? Share with your friends now
Tabs
Tuning: Drop D, half a step down

This tab is mainly for the rhythm guitar, but I also figured out the Intro and the 
solo at the Bridge.
I know this is not very correct, but it should get you started. Any suggestions are 
so I can finish this tab!

Intro

Guitar 1

      E  E  E  E  E  E  E  E     E   E   H         Q
D#||--------------------------|--------------------------|
A#||--------------------------|--------------------------|
F#||--7--7-----5--7--7-----5--|--7--12--10--------10\----|
C#||--------------------------|--------------------------|
G#||--5--5-----3--5--5-----3--|--5--10---8---------8\----|
C#||--------------------------|--------------------------|

  E  E  E  E  E  E  E  E     E   E   H         Q
--------------------------|-------------------------|
--------------------------|-------------------------|
--7--7-----5--7--7-----5--|--7--12--10--------10----|
--------------------------|-------------------------|
--5--5-----3--5--5-----3--|--5--10---8---------8----|
--------------------------|-------------------------|

   Q    E   E   E   Q.        E  E  H.
---------------------------|---------------------|
---------------------------|---------------------|
--12-------10--12--14------|--5--4--3~-----------|
---------------------------|---------------------|
--10--------8--10--12------|--3--2--1~-----------|
---------------------------|---------------------|
---------------------------|---------------------|

Guitar 2

      E  E  E  E  E  E  E  E     E  E  E  E  E  E  E  E
D#||--------------------------|--------------------------|
A#||--------------------------|--------------------------|
F#||--------------------------|--------------------------|
C#||--0--0--0--0--0--0--0--0--|--3--3--3--3--3--3--3--3--|
G#||--0--0--0--0--0--0--0--0--|--3--3--3--3--3--3--3--3--|
C#||--0--0--0--0--0--0--0--0--|--3--3--3--3--3--3--3--3--|

   E   E   E   E   E   E   E   E      E   E   E   E   E   E   E   E
----------------------------------|----------------------------------|
----------------------------------|----------------------------------|
----------------------------------|----------------------------------|
--10--10--10--10--10--10--10--10--|---9---9---9---9---9---9---9---9--|
--10--10--10--10--10--10--10--10--|--10--10--10--10--10--10--10--10--|
--10--10--10--10--10--10--10--10--|---9---9---9---9---9---9---9---9--|

  E  E  E  E  E  E  E  E     E  E  H.
--------------------------|---------------------|
--------------------------|---------------------|
--------------------------|--5--4--3------------|
--8--8--8--8--8--8--8--8--|---------------------|
--8--8--8--8--8--8--8--8--|--3--2--1------------|
--8--8--8--8--8--8--8--8--|---------------------|

Verse

"I thought that part of me..."       "...the whole thing"

      E  E  E  E  E  E  E  E            H        H
D#||--------------------------|      |--------------------|
A#||--------------------------|      |--------------------|
F#||--7--7-----7--7--7-----7--|      |--------------------|
C#||--7--7-----7--7--7-----7--|      |--5--------3--------|
G#||--5--5-----5--5--5-----5--|      |--5--------3--------|
C#||--0--0-----0--0--0-----0--| (x4) |--5--------3--------|

"and there's no doubt..."        "...inside me"

  E  E  E  E  E  E  E  E            H        H
--------------------------|      |--------------------|
--------------------------|      |--------------------|
--7--7-----7--7--7-----7--|      |--------------------|
--7--7-----7--7--7-----7--|      |--5--------10-------|
--5--5-----5--5--5-----5--|      |--5--------10-------|
--0--0-----0--0--0-----0--| (x4) |--5--------10-------|

  E  E  E  E  E  E  E  E             E   E  E   E   E   E  E   E
--------------------------|      |--------------------------------|
--------------------------|      |--------------------------------|
--------------------------|      |--------------------------------|
--7--7-----7--7--7-----7--|      |--10--10-----10--10--10-----10--|
--7--7-----7--7--7-----7--|      |--10--10-----10--10--10-----10--|
--7--7-----7--7--7-----7--| (x2) |--10--10-----10--10--10-----10--| (x2)

   E   E  E   E   E   E  E   E     E  E  E  E  E  E  E  E
--------------------------------|--------------------------|
--------------------------------|--------------------------|
--------------------------------|--------------------------|
---9---9------9---9---9------9--|--8--8-----8--8--8-----8--|
--10--10-----10--10--10-----10--|--8--8-----8--8--8-----8--|
---9---9------9---9---9------9--|--8--8-----8--8--8-----8--|

Chorus

"I was always..."

      E  E  E  E  E  E  E  E     E  E  E  E  E  E  E  E
D#||--------------------------|--------------------------|
A#||--------------------------|--------------------------|
F#||--------------------------|--------------------------|
C#||--0--0--0--0--0--0--0--0--|--3--3--3--3--3--3--3--3--|
G#||--0--0--0--0--0--0--0--0--|--3--3--3--3--3--3--3--3--|
C#||--0--0--0--0--0--0--0--0--|--3--3--3--3--3--3--3--3--|

  E  E  E  E  E  E  E  E     E  E  E  E  E  E  E  E
--------------------------|--------------------------|
--------------------------|--------------------------|
--------------------------|--------------------------|
--8--8--8--8--8--8--8--8--|--5--5--5--5--5--5--5--5--|
--8--8--8--8--8--8--8--8--|--5--5--5--5--5--5--5--5--|
--8--8--8--8--8--8--8--8--|--5--5--5--5--5--5--5--5--|

   E   E   E   E   E   E   E   E      E   E   E   E   E   E   E   E
----------------------------------|----------------------------------|
----------------------------------|----------------------------------|
----------------------------------|----------------------------------|
--10--10--10--10--10--10--10--10--|---9---9---9---9---9---9---9---9--|
--10--10--10--10--10--10--10--10--|--10--10--10--10--10--10--10--10--|
--10--10--10--10--10--10--10--10--|---9---9---9---9---9---9---9---9--|

  E  E  E  E  E  E  E  E     E  E  E  E  E  Q    E
--------------------------|-------------------------|
--------------------------|-------------------------|
--------------------------|-------------------------|
--8--8-----8--8--8-----8--|--8--8-----8-------------|
--8--8-----8--8--8-----8--|--8--8-----8--0--2----0--|
--8--8-----8--8--8-----8--|--8--8-----8--0--2----0--|

"Falling down..."

  E  E  E  E  E  E  E  E     E  E  E  E  E  E  E  E
--------------------------|--------------------------|
--------------------------|--------------------------|
--7--7--7--7--7--7--7--7--|--------------------------|
--7--7--7--7--7--7--7--7--|--3--3--3--3--3--3--3--3--|
--5--5--5--5--5--5--5--5--|--3--3--3--3--3--3--3--3--|
--0--0--0--0--0--0--0--0--|--3--3--3--3--3--3--3--3--|

  E  E  E  E  E  E  E  E      E   E   E   E   E   E   E   E
--------------------------|----------------------------------|
--------------------------|----------------------------------|
--------------------------|----------------------------------|
--8--8--8--8--8--8--8--8--|---9---9---9---9---9---9---9---9--|
--8--8--8--8--8--8--8--8--|--10--10--10--10--10--10--10--10--|
--8--8--8--8--8--8--8--8--|---9---9---9---9---9---9---9---9--|

"I can if you take it..."

  E  E  E  E  E   Q.        E  E  E  E  E  Q.
-------------------------|-------------------------|
-------------------------|-------------------------|
-------------------------|-------------------------|
--7--7--7--7-----10------|--7--7--7--7-----3\------|
--7--7--7--7-----10------|--7--7--7--7-----3\------|
--7--7--7--7-----10------|--7--7--7--7-----3\------|

"Sometimes I can't make it alone"

  E  E  E  E  E  Q    E     H        H
-------------------------|--------------------|
-------------------------|--------------------|
-------------------------|--------------------|
--7--7--7--7-----5----0--|--0--------0--------|
--7--7--7--7-----5----0--|--0--------0--------|
--7--7--7--7-----5----0--|--0--------0--------| (x2)

Repeat Intro
Repeat Verse
Repeat Chorus

Bridge

Guitar 1

      E   E  E  Q.     E  E     E   E  E  Q.     E  E   
D#||-------------------------|-------------------------|
A#||--6p--5---------------5--|--6p--5---------------5--|
F#||---------7--5------7-----|---------7--5------7-----|
C#||-------------------------|-------------------------|
G#||-------------------------|-------------------------|
C#||-------------------------|-------------------------|

  E   E  E  Q.     E  E     E  E  H.             
-------------------------|----------------------|
--6p--5-----8---------5--|--6--5----------------|
---------7---------7-----|----------------------|
-------------------------|----------------------|
-------------------------|--------8~------------|
-------------------------|----------------------|

   Q    E   Q.     Q       H         E    E    Q
--10--------------------|-----------10/--12\--10----|
-----------10------8----|--L------------------------|
--------7---------------|---------------------------|
------------------------|---------------------------|
------------------------|---------------------------|
------------------------|---------------------------|

   E   E   E   E   E   E   E   E      E   E   E   E   E   E   E   E
--12--12--12--12--12--12--12--12--|--13--13--13--13--13--13--13--13--|
----------------------------------|----------------------------------|
---9---9---9---9---9---9---9---9--|--10--10--10--10--10--10--10--10--|
----------------------------------|----------------------------------|
----------------------------------|----------------------------------|
----------------------------------|----------------------------------|

Guitar 2

"I think I've always been afraid to fly..."

      Q    Q    Q    Q       Q    Q    Q    Q       Q    Q    Q    Q       Q    Q    Q   
Q
D#||----------------------|----------------------|----------------------|----------------------|
A#||----------------------|----------------------|----------------------|----------------------|
F#||----------------------|----------------------|----------------------|----------------------|
C#||--8----8----8----8----|--8----8----8----8----|--5----5----5----5----|--5----5----5----5----|
G#||--8----8----8----8----|--8----8----8----8----|--5----5----5----5----|--5----5----5----5----|
C#||--8----8----8----8----|--8----8----8----8----|--5----5----5----5----|--5----5----5----5----|

  Q    Q    Q    Q       Q    Q    Q    Q       Q    Q    Q    Q       Q    Q    Q    Q
----------------------|----------------------|----------------------|----------------------|
----------------------|----------------------|----------------------|----------------------|
----------------------|----------------------|----------------------|----------------------|
--0----0----0----0----|--0----0----0----0----|--3----3----3----3----|--3----3----3----3----|
--0----0----0----0----|--0----0----0----0----|--3----3----3----3----|--3----3----3----3----|

(Both x2)

"Faster and faster..."

  E  E  E  E  E  E  E  E     E  E  E  E  E  E  E  E
--------------------------|--------------------------|
--------------------------|--------------------------|
--------------------------|--------------------------|
--5--5--5--5--5--5--5--5--|--7--7--7--7--7--7--7--7--|
--5--5--5--5--5--5--5--5--|--7--7--7--7--7--7--7--7--|
--5--5--5--5--5--5--5--5--|--7--7--7--7--7--7--7--7--|

"Higher and higher"

  E  E  E  E  E  E  E  E      E   E   E   E  H
--------------------------|---------------------------|
--------------------------|---------------------------|
--------------------------|---------------------------|
--8--8--8--8--9--9--9--9--|--10--10--10--10--5--------|
--8--8--8--8--9--9--9--9--|--10--10--10--10--5--------|
--8--8--8--8--9--9--9--9--|--10--10--10--10--5--------|

  E  E  E  E  E   Q.        E  E  E  E  H
-------------------------|-----------------------|
-------------------------|-----------------------|
-------------------------|-----------------------|
--7--7--7--7-----10------|--7--7--7--7-----------|
--7--7--7--7-----10------|--7--7--7--7-----------|
--7--7--7--7-----10------|--7--7--7--7-----------|

Repeat Chorus x2
There is a slight variation when you need to repeat the chorus.
You don't have to play the "Sometimes I Can't Make It Alone Part" before repeating.
Then you play the chorus normally again.

Duration Legend
---------------
H - half
Q - quarter
E - 8th
. - note dotted

Tablature Legend
----------------
L - tied note
br - bend, release
/ -  slide out upwards
\ -  slide out downwards
~ - vibrato

Hope it helps!
Remember, if you have anything to add, leave a comment, but please BE POLITE ;)





Comments


Popular Mae tabs & chords
Ocean Bass Tabs
Tisbury Lane Bass Tabs
Anything Chords
Awakening Chords
Breakdown Chords
Breakdown 1 Chords
Suspension 2 Chords
Falling Into You Tabs
Release Me Tabs
Sun Tabs


Song lyrics



↑ Back to top | Tablatures and chords are parodies/interpretations of the original songs. You may use it for private study, scholarship, research or language learning purposes only
© 2014 AZChords.com Contact us | Privacy policy | DMCA | Add/correct tabs | Request tabs | Top 50 tabs