>
 >
 >
Someone Else's Arms

Someone Else's Arms Bass Tabs

Mae - Someone Else's Arms chords, tabs, tablatures, lyrics

Guitar lessons | Add/correct | Request | Top 50 tabs Artists:  A B C D E F G H I J K L M N O P Q R S T U V W X Y Z 0-9

Someone Else's Arms Bass Tabs – Mae

CD, Sheet music, Poster

Do you like Someone Else's Arms? Share with your friends now
Bass TabsChordsTabs
Tuning: Standard 4-string (GDAE)

Intro/Verse (Bass starts at 0:01)

G|-------------------------------------------------|
D|-------------------------------------------------|
A|4(x6)--------4(x6)--------------1(x10)-----------|
E|------4(x10)-------4(x10)-1(x6)--------4(x12)-6-2| (x4)

Pre-chorus (0:55)

G|-------------------|
D|-------------------|
A|--------------4-4--|
E|2(x17)-4(x12)-----4| (x2)

Chorus (1:08)

G|-------------------|
D|-------------------|
A|-------1(x6)-------|
E|2(x16)-------4(x10)|

G|----------------------------|
D|----------------------------|
A|-------3(x2)-4(x4)----------|
E|2(x16)-------------4(x6)-6-2|

Verse (1:22)

G|-------------------------------------------------|
D|-------------------------------------------------|
A|4(x6)--------4(x6)--------------1(x10)-----------|
E|------4(x10)-------4(x10)-1(x6)--------4(x12)-6-2| (x2)

Pre-chorus (1:49)
G|-------------------|
D|-------------------|
A|--------------4-4--|
E|2(x17)-4(x12)-----4| (x2)

Chorus (2:02)

G|-------------------|
D|-------------------|
A|-------1(x6)-------|
E|2(x16)-------4(x10)|

G|----------------------------|
D|----------------------------|
A|-------3(x2)-4(x4)----------|
E|2(x16)-------------4(x6)-6-2|

G|-------------------|
D|-------------------|
A|-------1(x6)-------|
E|2(x16)-------4(x10)|

G|----------------------------|
D|----------------------------|
A|-------3(x2)-4(x4)----------|
E|2(x16)-------------4(x6)-6-2|

Bridge (02:30)

G|-----------------|
D|-----------------|
A|----------4~-----|
E|2~---4~--------2~| (x3)

G|-----------------|
D|-----------------|
A|----------3~-----|
E|2~---4~--------2~| (x2)

G|--------------------|
D|--------------------|
A|----------1-1-3-3-4~|
E|2~---4~-------------| 

Pre-chorus (3:10)
G|-------------------|
D|-------------------|
A|--------------4-4--|
E|2(x17)-4(x12)-----4| (x4)

Final Chorus (3:37)

G|-------------|
D|-------------|
A|-------------|
E|2(x16)-4(x16)|

G|------------------------|
D|------------------------|
A|1(x16)------3(x6)-------|
E|------------------4(x10)|

G|-------------|
D|-------------|
A|-------------|
E|2(x16)-4(x16)|

G|------------------------|
D|------------------------|
A|1(x16)------3(x6)-------|
E|------------------4(x10)|

After Final Chorus (4:17)

G|--|
D|--|
A|4~|
E|--|

Outro (4:24)

G|-------------------------------------------------|
D|-------------------------------------------------|
A|4(x6)--------4(x6)--------------1(x10)-----------|
E|------4(x10)-------4(x10)-1(x6)--------4(x12)-6-2| (x2)

G|--|
D|--|
A|4~|
E|--|





Comments


Popular Mae tabs & chords
Ocean Bass Tabs
Suspension Bass Tabs
Anything Chords
The Everglow Chords
Where The Falls Begin Chords
Futuro (Live) Tabs
Ready And Waiting To Fall 1 Tabs
Suspension 2 Tabs
Suspension 4 Tabs
Suspension 6 Tabs


Song lyrics



↑ Back to top | Tablatures and chords are parodies/interpretations of the original songs. You may use it for private study, scholarship, research or language learning purposes only
© 2014 AZChords.com Contact us | Privacy policy | DMCA | Add/correct tabs | Request tabs | Top 50 tabs