» » »

Mae, Just Let Go Tabs (ver.1)

Artists:  A B C D E F G H I J K L M N O P Q R S T U V W X Y Z # 

Just Let Go Tabs (ver.1)

Mae Tabs
Rating:
2/5 (1 vote)
Just Let Go lessons Tabs too difficult? Try these video lessons and learn fast
                ----------------------------------------------------------------------------
----------------------------------------------------------------------------

Tuning: Half Step Down Drop D

Intro
e|---------------------------------------------------|
B|--------------------3------------------------------|
G|---14---9---11--9---2------------------------------|
D|---12---7---9---7---0------------------------------|
A|---12---7---9---7---0---x3-------------------------|
D|---12---7---9---7---0------------------------------|


Verse
e|---------------------------------------------------|
B|---3-----------------------------------------------|
G|---2-----------------------------------------------|
D|---0---7---9---12---7---9---7----------------------|
A|---0---7---9---12---7---9---7----------------------|
D|---0---7---9---12---7---9---7----------------------|


Pre-Chorus
e|---------------------------------------------------|
B|---------------------------------------------------|
G|---------------------------------------------------|
D|---9---5---9---5---9---5---7-----------------------|
A|---9---5---9---5---9---5---7---x2------------------|
D|---9---5---9---5---9---5---7-----------------------|


Chorus
e|---------------------------------------------------|
B|--------------------------------------------3------|
G|--------------------------------------------2------|
D|---5---7---9---12---5---7---9---5---9---7---0------|
A|---5---7---9---12---5---7---9---5---9---7---0------|
D|---5---7---9---12---5---7---9---5---9---7---0------|


Intro x1
Verse
Pre-Chorus x2
Chorus

Bridge
e|---------------0-----------------------------------|
B|-----------3---2-----------------------------------|
G|-----------2---2-----------------------------------|
D|---5---9---0---2---5---9---7-----------------------|
A|---5---9---0---0---5---9---7-----------------------|
D|---5---9---0---0---5---9---7-----------------------|


Pre-Chorus x2
Chorus x3
Intro x3


End on
e|------------|
B|---3--------|
G|---2--------|
D|---0--------|
A|---0--------|
D|---0--------|
            
Submit corrections

comments powered by Disqus
↑ Back to top | Mae Tabs for Just Let Go. Lyrics for acoustic guitar and electric guitar. Tablatures and chords are parodies/interpretations of the original songs. You may use it for private study, scholarship, research or language learning purposes only