» » »

Goodbye, Goodnight Tabs (ver.2)

Artists:  A B C D E F G H I J K L M N O P Q R S T U V W X Y Z # 

Goodbye, Goodnight Tabs (ver.2)

Mae
Rating:
0/5 (0 votes)

Hard to play? Try these video lessons and learn fast.
                Tuning: Drop D

This is my first tab, please e-mail any corrections or additions to me please.

INTRO

e|----------------------------------------------------------|
B|----------------------------------------------------------|
G|-11-----4-----11-----6-----11-----4-----11-----6-----4----|     x2
D|-x--x3--x-x1--x--x4--x-x3--x--x8--x-x1--x--x2--x-x2--x-x8-|
A|-9------2-----9------4-----9------2-----9------4-----2----|
D|----------------------------------------------------------|

VERSE


e|----------------------------------------------------------|
B|----------------------------------------------------------|
G|----------------------------------------------------------|
D|----------------------------------------------------------|     x2
A|-222-2222--------222-22-----------------------------------|
D|----0----22244444---0--2200000000-------------------------|


e|----00----------22----------22---------22-----------------|
B|------0-00--------0-00--------2244-------0~---------------|
G|0-00--------0-00--------0-00-------0-00-------------------|
D|----------------------------------------------------------|     x2
A|----------------------------------------------------------|
D|----------------------------------------------------------|

The second part of the verse has some delay on it I think,
but this is pretty close

Chorus

e|----------------------------------------------------------|
B|----------------------------------------------------------|
G|-11-----4-----11-----6-----11-----4-----11-----6-----4----|     x2
D|-x--x3--x-x1--x--x4--x-x3--x--x8--x-x1--x--x2--x-x2--x-x8-|
A|-9------2-----9------4-----9------2-----9------4-----2----|
D|----------------------------------------------------------|
            
Hard to play? Try these video lessons and learn fast. | Correct




comments powered by Disqus
↑ Back to top | Tablatures and chords are parodies/interpretations of the original songs. You may use it for private study, scholarship, research or language learning purposes only