» » »

Mae, Brink Of Disaster Tabs (ver.1)

Artists:  A B C D E F G H I J K L M N O P Q R S T U V W X Y Z # 

Brink Of Disaster Tabs (ver.1)

Mae Tabs
 Rating:
3.4/5 (5 votes)
Brink Of Disaster lessons Tabs too difficult? Try these video lessons and learn fast
                Album Singularity



This is an awesome song by Mae of their new album Singularity
This is my second tab and i tried to work out most if not all 
the synthesizer parts in the song, as the intro and chorus are
extremely tricky, but overall, i believe i hit it right.
if i didnt be sure to let me know email, comment...
also, i recommend using a rhythm pick-up for this song to hit the 
lead and make it sound right, otherwise pretty straightforward.
Enjoy!



Intro:

Lead:
E||-------------------|-------------------|-------------------|-------------------|
B||-------------------|-------------------|-------------------|-------------------|
G||10-14-12-14-10-14-12-14-14-15-10-14-12-14-10-14-12-14-14-15|-------------------|
D||-------------------|-------------------|-------------------|-------------------|
A||-------------------|-------------------|-------------------|-------------------|
D||-------------------|-------------------|-------------------|-------------------|

Lead:(cont)
E||-------------------|-------------------|-------------------|-------------------|
B||-------------------|-------------------|-------------------|-------------------|
G||8-12-10-12-8-12-10-12/13-10-8-12-10-12-8-10-7-8-7-5~-------|-------------------|
D||-------------------|-------------------|-------------------|-------------------|
A||-------------------|-------------------|-------------------|-------------------|
D||-------------------|-------------------|-------------------|-------------------|

Rhythm:
E||-------------------|
B||-------------------|
G||8(x32)------4(x16)-|
D||8-----6(x16)4------|
A||6-----6-----2------|
D||------6------------|

Verse:(Rhythm)(x2)

E||-------------------|-------------------|-------------------|-------------------|
B||-------------------|-------------------|-------------------|-------------------|
G||8~-----------------|-------------------|-------------------|8~-----------------|
D||8~-----------------|1~-----------------|6~-----------------|8~-----------------|
A||6~-----------------|1~-----------------|6~-----------------|6~-----------------|
D||-------------------|1~-----------------|6~-----------------|-------------------|

Pre-Chorus:(Lead)

E||-------------------|-------------------|-------------------|-------------------|
B||-------------------|-------------------|-------------------|-------------------|
G||10-12-10-12-10-12-12/13\12-8-----------|-------------------|-------------------|
D||-------------------|-------------------|-------------------|-------------------|
A||-------------------|-------------------|-------------------|-------------------|
D||-------------------|-------------------|-------------------|-------------------|

Chorus:

Lead:
E||-------------------|-------------------|-------------------|-------------------|
B||-------------------|-------------------|-------------------|-------------------|
G||8(ring)-13-15-12---|8(ring)-10-12-8----|8(ring)-10-8-8(ring)-7(ring)-8(ring)---|
D||-------------------|-------------------|---------x-x-------|-------------------|
A||-------------------|-------------------|---------8-6-------|-------------------|
D||-------------------|-------------------|-------------------|-------------------|

Rhythm
E||-------------------|-------------------|-------------------|-------------------|
B||-------------------|-------------------|-------------------|-------------------|
G||8(x16)-------------|6(x16)-------------|-------------------|-------------------|
D||8-----6(x16)-------|6-----8(x8)-1(x4)-6(x4)----------------|-------------------|
A||6-----6------------|8-----8-----1-----6|-------------------|-------------------|
D||------6------------|------8-----1-----6|-------------------|-------------------|

Verse:(Rhythm)(x2)

E||-------------------|-------------------|-------------------|-------------------|
B||-------------------|-------------------|-------------------|-------------------|
G||8~-----------------|-------------------|-------------------|8~-----------------|
D||8~-----------------|1~-----------------|6~-----------------|8~-----------------|
A||6~-----------------|1~-----------------|6~-----------------|6~-----------------|
D||-------------------|1~-----------------|6~-----------------|-------------------|


Pre-Chorus 2:(Lead)

E||-------------------|-------------------|-------------------|-------------------|
B||-------------------|-------------------|-------------------|-------------------|
G||15p13-12-----------|10-12-10-12-10-12-12/13\12-8-----------|-------------------|
D||-------------------|-------------------|-------------------|-------------------|
A||-------------------|-------------------|-------------------|-------------------|
D||-------------------|-------------------|-------------------|-------------------|

Chorus 2:

Lead:
E||-------------------|-------------------|-------------------|-------------------|
B||-------------------|-------------------|-------------------|-------------------|
G||8(ring)-13-15-12---|8(ring)-10-12-8----|8(ring)-10-8-8(ring)-7(ring)-8(ring)---|
D||-------------------|-------------------|---------x-x-------|-------------------|
A||-------------------|-------------------|---------8-6-------|-------------------|
D||-------------------|-------------------|-------------------|-------------------|

Rhythm
E||-------------------|-------------------|-------------------|-------------------|
B||-------------------|-------------------|-------------------|-------------------|
G||8(x16)-------------|6(x16)-------------|-------------------|-------------------|
D||8-----6(x16)-------|6-----8(x8)-1(x4)-6(x4)----------------|-------------------|
A||6-----6------------|8-----8-----1-----6|-------------------|-------------------|
D||------6------------|------8-----1-----6|-------------------|-------------------|


Bridge:(x2)

E||-------------------|-------------------|
B||-------------------|-------------------|
G||6(x16)-------------|8(x16)-------------|
D||6-----6(x16)-------|8-----8(x16)-------|
A||4-----6------------|6-----8------------|
D||------6------------|------8------------|

Pre-Chorus 3:(Lead)

E||-------------------|-------------------|-------------------|-------------------|
B||-------------------|-------------------|-------------------|-------------------|
G||10-12-10-12-10-12-12/13\12-8-----------|10-12-10-12-10-12-12/13\12-8-----------|
D||-------------------|-------------------|-------------------|-------------------|
A||-------------------|-------------------|-------------------|-------------------|
D||-------------------|-------------------|-------------------|-------------------|

Chorus 3:

Lead:
E||-------------------|-------------------|-------------------|-------------------|
B||-------------------|-------------------|-------------------|-------------------|
G||8(ring)-13-15-12---|8(ring)-10-12-8----|8(ring)-10-8-8(ring)-7(ring)-8(ring)---|
D||-------------------|-------------------|---------x-x-------|-------------------|
A||-------------------|-------------------|---------8-6-------|-------------------|
D||-------------------|-------------------|-------------------|-------------------|

Rhythm
E||-------------------|-------------------|-------------------|-------------------|
B||-------------------|-------------------|-------------------|-------------------|
G||8(x16)-------------|6(x16)-------------|-------------------|-------------------|
D||8-----6(x16)-------|6-----8(x8)-1(x4)-6(x4)----------------|-------------------|
A||6-----6------------|8-----8-----1-----6|-------------------|-------------------|
D||------6------------|------8-----1-----6|-------------------|-------------------|

Outro:

E||-------------------|
B||-------------------|
G||-------------------|
D||1~-----------------|
A||1~-----------------|
D||1~-----------------|
            
Submit corrections

comments powered by Disqus
↑ Back to top | Mae Tabs for Brink Of Disaster. Lyrics for acoustic guitar and electric guitar. Tablatures and chords are parodies/interpretations of the original songs. You may use it for private study, scholarship, research or language learning purposes only