» » »

Breakdown Bass tabs (ver.1)

Artists:  A B C D E F G H I J K L M N O P Q R S T U V W X Y Z # 

Breakdown Bass tabs (ver.1)

Mae
Rating:
0/5 (0 votes)

Hard to play? Try these video lessons and learn fast.
                Not really the solo, but the main riff during the chorus. I trust you can figure out the rest.
It might be a half step down, but this tab will be in standard. Again, figure it out :)

G|----6----8-6--|---------------|
D|---6---6------|-4-3-----------|
A|--4-----------|-----4---------|
E|-4------------|-------4-2-1-1-|

Final time
G|----6----8-6--|-3-3-5-6-----------------|
D|---6---6------|--3-------6-4-3----------|
A|--4-----------|----------------4--------|
E|-4------------|-------------------4-2-1-|
            
Hard to play? Try these video lessons and learn fast. | Correct




comments powered by Disqus
↑ Back to top | Tablatures and chords are parodies/interpretations of the original songs. You may use it for private study, scholarship, research or language learning purposes only