>
 >
 >
All Deliberate Speed

All Deliberate Speed Guitar Tabs

Mae - All Deliberate Speed chords, tabs, tablatures, lyrics

Guitar lessons | Add/correct | Request | Top 50 tabs Artists:  A B C D E F G H I J K L M N O P Q R S T U V W X Y Z 0-9

All Deliberate Speed Guitar Tabs – Mae

CD, Sheet music, Poster

Do you like All Deliberate Speed? Share with your friends now
Tabs
Mae

standard tuning

intro:

e|-----0---0----------0-----0-----|
B|---4---4---4--0---0-----0-------|
G|----------------2-----2---------|
D|--------------------------------|
A|--------------------------------| x2
E|--------------------------------|

intro pt 2. * - pick through the xxx697 part 8 times

e|-----0---0------------7*------------------|
B|---4---4---4--0-----9-------4--5--4--0----|
G|------------------6-----------------------|
D|------------------------------------------|
A|------------------------------------------|
E|------------------------------------------|

verse pt 1:

e|-0-0-0-0--0-0-0-0--0-0-0-0--4-4-4-4---0-0-0-0--0-0-0-0--7-7-7-7--0-0-------|
B|4-4-4-4--5-5-5-5--7-7-7-7--0-0-0-0---4-4-4-4--5-5-5-5--9-9-9-9--7-7-7-5-4--|
G|---------------------------------------------------------------------------|
D|---------------------------------------------------------------------------|
A|---------------------------------------------------------------------------|
E|---------------------------------------------------------------------------|

verse pt 2:

e|-0-0-0-0--0-0-0-0--0-0-0-0--4-4-4-4---0-0-0-0--0-0-0-0-----|
B|4-4-4-4--5-5-5-5--7-7-7-7--0-0-0-0---4-4-4-4--5-5-5-5------|
G|-----------------------------------------------------------|
D|-----------------------------------------------------------|
A|-----------------------------------------------------------|
E|-----------------------------------------------------------|

power part: weird rhythm, but these are the chords, up and down strokes... sorta

e|----------------------|
B|---9---------9--------|
G|---9---------9--------|
D|---9---------9--------|
A|---0---------x--------|
E|-------------9--------|

chorus 1: g1

e|--------------------------------------|
B|--------------------------------------|
G|--------------------------------------|
D|--------------------------------------|
A|---9-------11-------6-------7---------|
E|---7-------9--------4-------5---------|

chorus 1: g2

e|--------------------------------------|
B|--------------------------------------|
G|---11-----13--------8-------9---------|
D|---x------x---------x-------x---------|
A|---9------11--------6-------7---------|
E|--------------------------------------|

chorus 2 goes the same, but after the second time through, both guitars go:

e|-----------------------------|
B|-----------------------------|
G|---6-------6---9---8---------|
D|---x---2---x---x---x---------|
A|---4---0---4---7---6---------|
E|-----------------------------|

breakdown pt 1:

this is where it gets weird and confusing, tab wise...

strum this once each time they cycle through for 8 times(confused, just
listen to the song, you'll understand)

e|---0-----|
B|---0-----|
G|---2-----|
D|---2-----|
A|---x-----|
E|---2-----|

breakdown pt 2: for 8 times

g1: pick this part 8 times

e|---------0-------------0-------|
B|-----------0-------------0-----|
G|-------2-------------2---------|
D|-----2-------------2-----------|
A|---0---------------------------|
E|-----------------2-------------|

then go into this for 8 times(again, weird rhythm, just play to the song)

e|---------------------------------|
B|---2--9--2--9-----2--9--2--9-----|
G|---2--9--2--9-----2--9--2--9-----|
D|---2--9--2--9-----2--9--2--9-----|
A|---0--0--0--0-----x--x--x--x-----|
E|------------------2--9--2--9-----|

g2: pick this part for 16

e|-----7---7-------0---0----------0---------0-------|
B|---9---9---9---4---4---4---0--2---2--0--2---2-----|
G|--------------------------------------------------|
D|--------------------------------------------------|
A|--------------------------------------------------|
E|--------------------------------------------------|

song order:
intro
verse pt 1
verse pt 2
power part x2
chorus 1 riff x4
verse pt 1
verse pt 2
power part x2
chorus 2 riff x4
breakdown
end on x0999x





Comments


Popular Mae tabs & chords
Suspension 2 Bass Tabs
Tisbury Lane Bass Tabs
Breakdown 2 Chords
Sleepwell Chords
This Is The Countdown Chords
Goodbye, Goodnight 1 Tabs
Summertime 1 Tabs
Suspension Intro Tabs
This Time Is The Last Time Tabs
Someone Elses Arms Ukulele


Song lyrics



↑ Back to top | Tablatures and chords are parodies/interpretations of the original songs. You may use it for private study, scholarship, research or language learning purposes only
© 2014 AZChords.com Contact us | Privacy policy | DMCA | Add/correct tabs | Request tabs | Top 50 tabs