» » »

Mads Langer, The River Has Run Wild Tabs (ver.1)

Artists:  A B C D E F G H I J K L M N O P Q R S T U V W X Y Z # 

The River Has Run Wild Tabs (ver.1)

Mads Langer Tabs
Rating:
5/5 (1 vote)
The River Has Run Wild lessons Tabs too difficult? Try these video lessons and learn fast
                soundcloud.com/ginnemarker/

Mads Langer
The River Has Run Wild (live)
capo 3. fret

Intro:

  G/B      Cadd9   Em7
e-------------------------0---------------0---------------0---------------0----------|
b--3--------3-------3-------------3---------------3---------------3---------------3--|
g------0--------0-------0-------0-------0-------0-------0-------0-------0-------0----|
d----0---0----0---0---0-------0-------0-------0-------0-------0-------0-------0------|
a--2--------3------------------------------------------------------------------------|
e-------------------0-------0-------0-------0-------0-------0-------0-------0--------|
  G/B      Cadd9   Em7
e-------------------------0---------------0---------------0---------------0----------|
b--3--------3-------3-------------3---------------3---------------3---------------3--|
g------0--------0-------0-------0-------0-------0-------0-------0-------0-------0----|
d----0---0----0---0---0-------0-------0-------0-------0-------0-------0-------0------|
a--2--------3------------------------------------------------------------------------|
e-------------------0-------0-------0-------0-------0-------0-------0-------0--------|

Verse 1:

  G/B      Cadd9   Em7
e-------------------------0---------------0---------------0---------------0----------|
b--3--------3-------3-------------3---------------3---------------3---------------3--|
g------0--------0-------0-------0-------0-------0-------0-------0-------0-------0----|
d----0---0----0---0---0-------0-------0-------0-------0-------0-------0-------0------|
a--2--------3------------------------------------------------------------------------|
e-------------------0-------0-------0-------0-------0-------0-------0-------0--------|
  G/B      Cadd9   Em7                                                     D/F#
e-------------------------0---------------0---------------0---------------0----------|
b--3--------3-------3-------------3---------------3---------------3---------------3--|
g------0--------0-------0-------0-------0-------0-------0-------0-------0-------2----|
d----0---0----0---0---0-------0-------0-------0-------0-------0-------0-------0------|
a--2--------3------------------------------------------------------------------------|
e-------------------0-------0-------0-------0-------0-------0-------0-------2--------|

Bridge 1:

   G
e--------3-----------------------------3---------------3----------|
b---------------3------3-----------------------3---------------3--|
g------0------0------0---------0-----0-------0-------0-------0----|
d----0------0------0---------0-----0-------0-------0-------0------|
a------------------------0h2--------------------------------------|
e--3------3------3---------------3-------3-------3-------3--------|
  D/F#
e-------------------------------------------------------------------|
b--------3-------3-------3---------------3-------3-------3-------3--|
g------2-------2-------2---------0h2---2-------2-------2-------2----|
d----0-------0-------0---------0-----0-------0-------0-------0------|
a-------------------------------------------------------------------|
e--2-------2-------2-------0h2-------------2-------2-------2--------|
   Em7                                                    D/F#
e-------------------------------------------------------------------|
b--------3-------3-------3-------3-------3-------3-------3-------3--|
g------0-------0-------0-------0-------0-------0-------0-------2----|
d----2-------2-------2-------2-------2-------2-------2-------0------|
a-------------------------------------------------------------------|
e--0-------0-------0-------0-------0-------0-------0-------2--------|
   G
e------------------------------------------------------------------|
b--------3-------3-------3--------------3-------3-------3-------3--|
g------0-------0-------0---------0-----0------0-------0-------0----|
d----0-------0-------0---------0-----0------0-------0-------0------|
a--------------------------0h2-------------------------------------|
e--3-------3-------3---------------3------3-------3-------3--------|

Verse 2:

  G/B      Cadd9   Em7
e-------------------------0---------------0---------------0---------------0----------|
b--3--------3-------3-------------3---------------3---------------3---------------3--|
g------0--------0-------0-------0-------0-------0-------0-------0-------0-------0----|
d----0---0----0---0---0-------0-------0-------0-------0-------0-------0-------0------|
a--2--------3------------------------------------------------------------------------|
e-------------------0-------0-------0-------0-------0-------0-------0-------0--------|
  G/B      Cadd9   Em7                                                     D/F#
e-------------------------0---------------0---------------0---------------0----------|
b--3--------3-------3-------------3---------------3---------------3---------------3--|
g------0--------0-------0-------0-------0-------0-------0-------0-------0-------2----|
d----0---0----0---0---0-------0-------0-------0-------0-------0-------0-------0------|
a--2--------3------------------------------------------------------------------------|
e-------------------0-------0-------0-------0-------0-------0-------0-------2--------|

Bridge 2:

   G
e--------3-----------------------------3---------------3----------|
b---------------3------3-----------------------3---------------3--|
g------0------0------0---------0-----0-------0-------0-------0----|
d----0------0------0---------0-----0-------0-------0-------0------|
a------------------------0h2--------------------------------------|
e--3------3------3---------------3-------3-------3-------3--------|
  D/F#
e-------------------------------------------------------------------|
b--------3-------3-------3---------------3-------3-------3-------3--|
g------2-------2-------2---------0h2---2-------2-------2-------2----|
d----0-------0-------0---------0-----0-------0-------0-------0------|
a-------------------------------------------------------------------|
e--2-------2-------2-------0h2-------------2-------2-------2--------|
   Em7                                                    D/F#
e-------------------------------------------------------------------|
b--------3-------3-------3-------3-------3-------3-------3-------3--|
g------0-------0-------0-------0-------0-------0-------0-------2----|
d----2-------2-------2-------2-------2-------2-------2-------0------|
a-------------------------------------------------------------------|
e--0-------0-------0-------0-------0-------0-------0-------2--------|
   G
e--------------------------------------------------|
b--------3-------3-------3--------------3-------3--|
g------0-------0-------0---------0-----0------0----|
d----0-------0-------0---------0-----0------0------|
a--------------------------0h2---------------------|
e--3-------3-------3---------------3------3--------|

Chorus 1:

  G/B      Cadd9   Em7
e-------------------------0---------------0---------------0----------|
b--3--------3-------3-------------3---------------3---------------3--|
g------0--------0-------0-------0-------0-------0-------0-------0----|
d----0---0----0---0---0-------0-------0-------0-------0-------0------|
a--2--------3--------------------------------------------------------|
e-------------------0-------0-------0-------0-------0-------0--------|
  G/B      Cadd9   Dadd9sus4
e-------------------------0---------------0---------------0----------|
b--3--------3-------3-------------3---------------3---------------3--|
g------0--------0-------0-------0-------0-------0-------0-------0----|
d----0---0----0---0---4-------4-------4-------4-------4-------4------|
a--2--------3-------5-------5-------5-------5-------5-------5--------|
e--------------------------------------------------------------------|
  G/B      Cadd9   Em7
e-------------------------0---------------0---------------0----------|
b--3--------3-------3-------------3---------------3---------------3--|
g------0--------0-------0-------0-------0-------0-------0-------0----|
d----0---0----0---0---0-------0-------0-------0-------0-------0------|
a--2--------3--------------------------------------------------------|
e-------------------0-------0-------0-------0-------0-------0--------|
  G/B      Cadd9   Dadd9sus4                                      G/B    Cadd9
e-------------------------0---------------0---------------0-------------------------|
b--3--------3-------3-------------3---------------3--------------3-------3-------3--|
g------0--------0-------0-------0-------0-------0-------0------0-------0-------0----|
d----0---0----0---0---4-------4-------4-------4-------4------4-------0-------0------|
a--2--------3-------5-------5-------5-------5-------5------5-------2-------3--------|
e-----------------------------------------------------------------------------------|
   Em7
e--------0---------------0---------------0---------------0----------|
b----------------3---------------3---------------3---------------3--|
g------0-------0-------0-------0-------0-------0-------0-------0----|
d----0-------0-------0-------0-------0-------0-------0-------0------|
a-------------------------------------------------------------------|
e--0-------0-------0-------0-------0-------0-------0-------0--------|

Verse 3:

  G/B      Cadd9   Em7
e-------------------------0---------------0---------------0---------------0----------|
b--3--------3-------3-------------3---------------3---------------3---------------3--|
g------0--------0-------0-------0-------0-------0-------0-------0-------0-------0----|
d----0---0----0---0---0-------0-------0-------0-------0-------0-------0-------0------|
a--2--------3------------------------------------------------------------------------|
e-------------------0-------0-------0-------0-------0-------0-------0-------0--------|
  G/B      Cadd9   Em7                                                     D/F#
e-------------------------0---------------0---------------0---------------0----------|
b--3--------3-------3-------------3---------------3---------------3---------------3--|
g------0--------0-------0-------0-------0-------0-------0-------0-------0-------2----|
d----0---0----0---0---0-------0-------0-------0-------0-------0-------0-------0------|
a--2--------3------------------------------------------------------------------------|
e-------------------0-------0-------0-------0-------0-------0-------0-------2--------|

Bridge 3:

   G
e--------3-----------------------------3---------------3----------|
b---------------3------3-----------------------3---------------3--|
g------0------0------0---------0-----0-------0-------0-------0----|
d----0------0------0---------0-----0-------0-------0-------0------|
a------------------------0h2--------------------------------------|
e--3------3------3---------------3-------3-------3-------3--------|
  D/F#
e-------------------------------------------------------------------|
b--------3-------3-------3---------------3-------3-------3-------3--|
g------2-------2-------2---------0h2---2-------2-------2-------2----|
d----0-------0-------0---------0-----0-------0-------0-------0------|
a-------------------------------------------------------------------|
e--2-------2-------2-------0h2-------------2-------2-------2--------|
   Em7                                                    D/F#
e-------------------------------------------------------------------|
b--------3-------3-------3-------3-------3-------3-------3-------3--|
g------0-------0-------0-------0-------0-------0-------0-------2----|
d----2-------2-------2-------2-------2-------2-------2-------0------|
a-------------------------------------------------------------------|
e--0-------0-------0-------0-------0-------0-------0-------2--------|
   G
e--------------------------------------------------|
b--------3-------3-------3--------------3-------3--|
g------0-------0-------0---------0-----0------0----|
d----0-------0-------0---------0-----0------0------|
a--------------------------0h2---------------------|
e--3-------3-------3---------------3------3--------|

Chorus 2:

  G/B      Cadd9   Em7
e-------------------------0---------------0---------------0----------|
b--3--------3-------3-------------3---------------3---------------3--|
g------0--------0-------0-------0-------0-------0-------0-------0----|
d----0---0----0---0---0-------0-------0-------0-------0-------0------|
a--2--------3--------------------------------------------------------|
e-------------------0-------0-------0-------0-------0-------0--------|
  G/B      Cadd9   Dadd9sus4
e-------------------------0---------------0---------------0----------|
b--3--------3-------3-------------3---------------3---------------3--|
g------0--------0-------0-------0-------0-------0-------0-------0----|
d----0---0----0---0---4-------4-------4-------4-------4-------4------|
a--2--------3-------5-------5-------5-------5-------5-------5--------|
e--------------------------------------------------------------------|
  G/B      Cadd9   Em7
e-------------------------0---------------0---------------0----------|
b--3--------3-------3-------------3---------------3---------------3--|
g------0--------0-------0-------0-------0-------0-------0-------0----|
d----0---0----0---0---0-------0-------0-------0-------0-------0------|
a--2--------3--------------------------------------------------------|
e-------------------0-------0-------0-------0-------0-------0--------|
  G/B      Cadd9   Dadd9sus4
e-------------------------0---------------0---------------0--------------0----------|
b--3--------3-------3-------------3---------------3--------------3---------------3--|
g------0--------0-------0-------0-------0-------0-------4------4-------4-------4----|
d----0---0----0---0---4-------4-------4-------4-------4------4-------4-------4------|
a--2--------3-------5-------5-------5-------5-------2------2-------2-------2--------|
e-----------------------------------------------------------------------------------|
  Cadd9
e--------0---------------0---------------0---------------0----------|
b----------------0---------------0---------------0---------------0--|
g------0-------0-------0-------0-------0-------0-------0-------0----|
d----2-------2-------2-------2-------2-------2-------2-------2------|
a--3-------3-------3-------3-------3-------3-------3-------3--------|
e-------------------------------------------------------------------|
  Cadd9/C#                        Cadd9
e--------0---------------0---------------0---------------0----------|
b----------------0---------------0---------------0---------------0--|
g------0-------0-------0-------0-------0-------0-------0-------0----|
d----2-------2-------2-------2-------2-------2-------2-------2------|
a--4-------4-------4-------4-------3-------3-------3-------3--------|
e-------------------------------------------------------------------|

e----------------0---------------0---------------0---------------0--|
b--------0---------------0---------------0---------------0----------|
g------2-------2-------2-------2-------2-------2-------2-------2----|
d----0-------0-------0-------0-------0-------0-------0-------0------|
a--2-------2-------2-------2-------2-------2-------2-------2--------|
e-------------------------------------------------------------------|

Verse 4:

  G/B     Cadd9    Em7  G/B  Cadd9  Em7
e-------------------0~~--------------0~--|
b--3-------3--------3~~--3-----3-----3~--|
g------0-------0---------0-----0---------|
d----0---0---0---0-------0-----0---------|
a--2-------3-------------2-----3---------|
e-------------------0~~--------------0~--|
  F#  G                   D/F#                 Em7     D/F# G
e-----------------------------------------------0-0-0-0----------------|
b-----3-3-3-3-3---3-3-3-3--3-3-3---3-3-3---3-3--3-3-3-3--3--3-3-3---3--|
g-----0-0-0-0-0---0-0-0-0--2-2-2---2-2-0h2-2-2--0-0-0-0--2--0-0-0---0--|
d-----0-0-0-0-0---0-0-0-0--0-0-0---0-0-0---0-0--2-2-2-2--0--0-0-0---0--|
a-----2-2-2-2-0h2-2-2-2-2-----------------------2-2-2-2-----2-2-0h2-2--|
e--2--3-3-3-3-3---3-3-3-3--2-2-2-0h2-2-2---2-2--0-0-0-0--2--3-3-3---3--|

Chorus 3:

  G/B      Cadd9   Em7
e-------------------------0---------------0---------------0----------|
b--3--------3-------3-------------3---------------3---------------3--|
g------0--------0-------0-------0-------0-------0-------0-------0----|
d----0---0----0---0---0-------0-------0-------0-------0-------0------|
a--2--------3--------------------------------------------------------|
e-------------------0-------0-------0-------0-------0-------0--------|
  G/B      Cadd9   Dadd9sus4
e-------------------------0---------------0---------------0----------|
b--3--------3-------3-------------3---------------3---------------3--|
g------0--------0-------0-------0-------0-------0-------0-------0----|
d----0---0----0---0---4-------4-------4-------4-------4-------4------|
a--2--------3-------5-------5-------5-------5-------5-------5--------|
e--------------------------------------------------------------------|
  G/B Cadd9 Em7          G/B Cadd9  Dadd9sus4
e------------0-0-0-0-0-0--------------0-0-0-0-0-0--|
b--3----3----3-3-3-3-3-3--3----3------3-3-3-3-3-3--|
g--0----0----0-0-0-0-0-0--0----0------0-0-0-0-0-0--|
d--0----0----2-2-2-2-2-2--0----0------4-4-4-4-4-4--|
a--2----3----2-2-2-2-2-2--2----3------5-5-5-5-5-5--|
e------------0-0-0-0-0-0---------------------------|

Outro:

  G/B Cadd9 Em7
e------------0~~--|
b--3----3----3~~--|
g--0----0----0~~--|
d--0----0----2~~--|
a--2----3----2~~--|
e------------0~~--|


Lyrics:

the river has run wild tonight
the birds have stopped singing and I've lost my sight

and you - you're not around - I keep my ground - just quiet

The river has run wild tonight
it hurts to see you burning- burning oh so bright.

See through my looking glass - sell the pass - it's still quiet

There is trouble in the heartland
You're drifting your own way
There is trouble - it's a wasteland
There's something you don't say

Toss me in the ocean and see if I float
I'm causing a commotion on a sinking boat

And you - you come undone - one by one - let's start a riot

There is trouble in the heartland
You're drifting your own way
There is trouble - it's a wasteland
There's something you don't say

There's something you don't say
There's something you don't say
There's something you don't say
There's something you don't say

Toss me in the ocean and watch it drown
one man's smile is another man's frown

and you - you're not around - I keep my ground - just quiet

There is trouble in the heartland
You're drifting your own way
There is trouble - it's a wasteland
There's something you don't say

the river has run wild tonight
            

comments powered by Disqus
↑ Back to top | Mads Langer Tabs for The River Has Run Wild. Lyrics for acoustic guitar and electric guitar. Tablatures and chords are parodies/interpretations of the original songs. You may use it for private study, scholarship, research or language learning purposes only