» » »

Mads Langer, Shine Chords (ver.1)

Artists:  A B C D E F G H I J K L M N O P Q R S T U V W X Y Z # 

Shine Chords (ver.1)

Mads Langer Tabs
 Rating:
4/5 (4 votes)
Shine lessons Tabs too difficult? Try these video lessons and learn fast
1
                "Shine" by Mads Langer from the 2009 album "Mads Langer"

Tips:
The slides during the intro has to be quite fast to get the right feeling.
During the verse you have to listen to the rythm to get the right stroke.
At the beginning of the chorus the chord is a E/Ab, but if you can't pull it
off just play a normal E-chord. During the bridge you can change the Bb-
chord to a F#-chord if you think it sounds better.

Chords:
Esus4:022200
Gm6:  3x233x
E/G#: 422100

Intro
  E   Esus4
e---0-0------0-0------0-0------0-0---------------|
B---0-0------0-0------0-0------0-0---------------|
G---1-2/4/2--1-2/4/2--1-2/4/2--1-2/4/2-----------|
D---2-2/4/2--2-2/4/2--2-2/4/2--2-2/4/2-----------|
A---2-2------2-2------2-2------2-2---------------|
E-0---------0--------0---------0-----------------|

Verse
Hold your breath as I kiss you softly...
Em - Gm6 - A - B
Em - Gm6 - A - B

Chorus
You're going down with this ship...
E/G# - E - Esus4 -

And nothing can ever be the same again...
  B  C# Eb E  D  C# C  B  B
e-0--0--0--0--0--0--0--0--0-----------------------|
B-0--0--0--0--0--0--0--0--0-----------------------|
G-4--6--8--9--7--6--5--4--4-----------------------|
D-x--x--x--x--x--x--x--x--x-----------------------|
A-2--4--6--7--5--4--3--2--2-----------------------|
E-------------------------------------------------|

(intro again)

Verse
Hold my hand and help me let you go...
Em - Gm6 - A - B
Em - Gm6 - A - B

(chorus again)

Bridge
Shine on you again... (wailing)
E - Bb - G - A
E - Bb - G - A
E - Bb - G - A
E - Bb - G - A

(chorus again - softly)

End on E
            
Submit corrections

comments powered by Disqus
↑ Back to top | Mads Langer Chords for Shine. Lyrics for acoustic guitar and electric guitar. 1 Tablatures and chords are parodies/interpretations of the original songs. You may use it for private study, scholarship, research or language learning purposes only