» » »

Mads Langer, Love Song Tabs (ver.1)

Artists:  A B C D E F G H I J K L M N O P Q R S T U V W X Y Z # 

Love Song Tabs (ver.1)

Mads Langer Tabs
 Rating:
4/5 (4 votes)
Love Song lessons Tabs too difficult? Try these video lessons and learn fast
1
                soundcloud.com/ginnemarker/

Mads Langer
Love Song - No
Mads Langer


intro/mellemspil
e-3--3---3-----5-----3---2---2-----3-----2---0---3---0---0---3---3p2~~--|
B---0---0-----0-----0---0---0-----0-----0---1---1---1---1---3---3-------|
G--0---0-----0-----0---0---0-----0-----0---0---0---0---0---2---2--------|
D-5---5---5s7---7s5---4---4---4s5---5s4-------------------0---0---------|
A-----------------------------------------0---0---0---0-----------------|
E-----------------------------------------------------------------------|


riff 1
e-3--3---3-----5-----3---2---2-----3-----2---0---0---0---0---3---3p2~~--|
B---0---0-----0-----0---0---0-----0-----0---1---1---3---1---3---3-------|
G--0---0-----0-----0---0---0-----0-----0---0---0---0---0---2---2--------|
D-5---5---5s7---7s5---4---4---4s5---5s4-------------------0---0---------|
A-----------------------------------------0---0---0---0-----------------|
E-----------------------------------------------------------------------|

riff 2
e-------------------------------------0-----------3---3p2~--|
B----3---3---3---3---3---3---3---3---0-----3p2---3---3------|
G---0---0---0---0---0---0---0---0---0-----2-----2---2-------|
D--0---0---3---3---2---2---0---0---2-----2-----0---0--------|
A-----------------3---3---2---2---------0-------------------|
E-3---3---3---3-------------------0-------------------------|

riff 3
e--------------------------------------------------0---0---2---2--|
B----3---3---3---3---3---3---3---3---0------3p2---1---1---0---0---|
G---0---0---0---0---0---0---0---0---0-0----2-----0---0---0---0----|
D--0---0---3---3---2---2---0---0---2---2--2-------------4---4-----|
A-----------------3---3---2---2----------0------0---0-------------|
E-3---3---3---3-------------------0-------------------------------|

riff 4
e----6---6---6---6-------------------3---3---3---3-----------------------------------|
B---6---6---6---6----4---4---4---4--3---3---3---3----4---4---4---4-----3---3---0---0-|
G--0---0---0---0----0---0---0---0--0---0---0---0----5---5---5---5-----0---0---0---0--|
D------------------3---3---3---3-------------------0---0---0---0-----4---4---4---4---|
A-6---6---6---6---3---3---3---3---2---2---2---2---------------------5---5---5---5----|
E-------------------------------------------------5---5---5---5----------------------|


intro: intro/mellemspil
vers 1: riff 1 x 2
omkvæd: riff 2, riff 3
mellemspil: intro/mellemspil
vers 2: riff 1 x 2
omkvæd: riff 2, riff 3
c-del: riff 4
mellemspil: intro/mellemspil
omkvæd: riff 2

Tekst


vers 1:

Write another love song - no
Write another lullaby you know
Write a song about the war
and let the world know what it already knows


omkvæd:

Tell 'em all what it feels like
not to be with you - anymore
i doubt they care

Sing a silly song for
another no one while they all pretent
that they do care - about it


vers 2:

Write another love song - no
for me and my own ego - no
State the truth through wisdoms eyes
and give them all a reason to proclaime that i'm too young


omkvæd:

Tell 'em all what it feels like
not to be with you - anymore
i doubt they care

Sing a silly song for
another no one while they all pretent
that they do care - about it


c-del:

They don't care about it, don't care about it
noooooooooooooooooo - (yeah)


omkvæd:

Tell 'em all what it feels like
not to be with you - anymore
i doubt they care

Sing a silly song for
A special certain someone before i'm gone
and I will though I might be wrong
            
Submit corrections

comments powered by Disqus
↑ Back to top | Mads Langer Tabs for Love Song. Lyrics for acoustic guitar and electric guitar. 1 Tablatures and chords are parodies/interpretations of the original songs. You may use it for private study, scholarship, research or language learning purposes only