» » »

Madsen, Willkommen Im Chaos Tabs (ver.1)

Artists:  A B C D E F G H I J K L M N O P Q R S T U V W X Y Z # 

Willkommen Im Chaos Tabs (ver.1)

Madsen Tabs
 Rating:
4/5 (4 votes)
Willkommen Im Chaos lessons Tabs too difficult? Try these video lessons and learn fast
                Madsen - Willkommen im Chaos

Instrument: Guitar
Tuning: Drop D



Intro

Guitar #1
e||------------------------------------------------|
B||------------------------------------------------|
G||-------------------------------------3--3-------|
D||-5-5--5-5-5--5-5--5-5-5--3-3--3-3-3--3--3--5--3-|
A||-5-5--5-5-5--5-5--5-5-5--3-3--3-3-3--1--1--5--3-|
D||-5-5--5-5-5--5-5--5-5-5--3-3--3-3-3--------5--3-| x4

e||------------------------------------------------|
B||------------------------------------------------|
G||------------------------------------------------|
D||-1-1--1-1-1--1-1--1-1-1-3-3--3-3-3--3-3--3-3-3--|
A||-1-1--1-1-1--1-1--1-1-1-3-3--3-3-3--3-3--3-3-3--|
D||-1-1--1-1-1--1-1--1-1-1-3-3--3-3-3--3-3--3-3-3--|

e||------------------------------------------------|
B||------------------------------------------------|
G||-------------------------------------3--3-------|
D||-5-5--5-5-5--5-5--5-5-5--3-3--3-3-3--3--3--5--3-|
A||-5-5--5-5-5--5-5--5-5-5--3-3--3-3-3--1--1--5--3-|
D||-5-5--5-5-5--5-5--5-5-5--3-3--3-3-3--------5--3-| x2

Guitar#2
e||---3---1----3----3---1----3-|---3---1-----------------------|
B||-3---3----3----3---3----3---|-3---3----3-1---1-3-1----------|
G||----------------------------|--------------3-------3-0---0--|
D||----------------------------|--------------------------3----|
A||----------------------------|-------------------------------|
D||----------------------------|-------------------------------| x2

e||-------------------------------------------------------------------------------------------|
B||-11----11----11----11----11----11----11----11----10----10----10----10----10----10----10----|
G||----10----10----10----10----10----10----10----10----10----10----10----10----10----10----10-|
D||-------------------------------------------------------------------------------------------|
A||-------------------------------------------------------------------------------------------|
D||-------------------------------------------------------------------------------------------|

e||---3---1----3----3---1----3-|---3---1-----------------------|
B||-3---3----3----3---3----3---|-3---3----3-1---1-3-1----------|
G||----------------------------|--------------3-------3-0---0--|
D||----------------------------|--------------------------3----|
A||----------------------------|-------------------------------|
D||----------------------------|-------------------------------| 

e||---3---1----3----3---1----3-|---3---1--------------------|
B||-3---3----3----3---3----3---|-3---3----3-1---1-3-1-------|
G||----------------------------|--------------3-------3-0---|
D||----------------------------|----------------------------|
A||----------------------------|----------------------------|
D||----------------------------|----------------------------| 



Verse

e||---------------------|
B||---------------------|
G||---------------------|
D||-5------3-----0------|
A||-5------3-----0------|
D||-5-x24--3-x4--0-x4---| x2


Chorus

Guitar #1
e||---------------------|
B||---------------------|
G||---------------------|
D||-1-----3-----5-------|
A||-1-----3-----5-------|
D||-1-x8--3-x8--5-x16---|

Guitar #2
e||---3---1----3----3---1----3-|---3---1----3----3---1----3---|
B||-3---3----3----3---3----3---|-3---3----3----3---3----3-----|
G||----------------------------|------------------------------|
D||----------------------------|------------------------------|
A||----------------------------|------------------------------|
D||----------------------------|------------------------------|


Verse

Guitar #1
e||---------------------|
B||---------------------|
G||---------------------|
D||-5------3-----0------|
A||-5------3-----0------|
D||-5-x24--3-x4--0-x4---| x2

Guitar #2 comes in second time

e||------------------------------6-------|
B||------------------6------6/8-----8----|
G||------3------5/7-----7----------------|
D||-3/5-----5----------------------------|
A||--------------------------------------|
D||--------------------------------------|


Chorus

Guitar #1
e||---------------------|
B||---------------------|
G||---------------------|
D||-1-----3-----5-------|
A||-1-----3-----5-------|
D||-1-x8--3-x8--5-x16---|

Guitar #2
e||---3---1----3----3---1----3-|---3---1----3----3---1----3---|
B||-3---3----3----3---3----3---|-3---3----3----3---3----3-----|
G||----------------------------|------------------------------|
D||----------------------------|------------------------------|
A||----------------------------|------------------------------|
D||----------------------------|------------------------------|



Solo / Break

e||------------------------------------------------------|
B||---------------------------6h8p6----------------------|
G||-----------------3h5p3---------------3h5p3--5b-3------|
D||------3h5p3--------------------------------------5-3--|
A||------------------------------------------------------|
D||-5--5---------5---------5---------5-------------------|

e||-------------------------------------6h8p6---------------|
B||---------------------------6h8p6----------------6---6-8--|
G||-----------------3h5p3----------------------5-7---7------|
D||------3h5p3----------------------------------------------|
A||---------------------------------------------------------|
D||-5--5---------5---------5---------5----------------------|

At 2:09 
e||--------------|
B||-8b(10)--8----|
G||--------------|
D||--------------|
A||--------------|
D||--------------| x8


Chorus

Guitar #1
e||---------------------|
B||---------------------|
G||---------------------|
D||-1-----3-----5-------|
A||-1-----3-----5-------|
D||-1-x8--3-x8--5-x16---|

Guitar #2
e||--------------|
B||-8b(10)--8----|
G||--------------|
D||--------------|
A||--------------|
D||--------------| x2


Guitar #1              repeat til end
e||-------------||-----------------------------||
B||-------------||-----------------------------||
G||-------------||-----------------------------||
D||-1-----3-----||--5-5-3-5--3-5--3-5--3-5--5--||
A||-1-----3-----||--5-5-3-5--3-5--3-5--3-5--5--||
D||-1-x8--3-x8--||--5-5-3-5--3-5--3-5--3-5--5--||

Guitar #2
e||--------------------|
B||-11~------13~-------|
G||-10~------10~-------|
D||--------------------|
A||--------------------|
D||--------------------|
            
Submit corrections

comments powered by Disqus
↑ Back to top | Madsen Tabs for Willkommen Im Chaos. Lyrics for acoustic guitar and electric guitar. Tablatures and chords are parodies/interpretations of the original songs. You may use it for private study, scholarship, research or language learning purposes only