» » »

Madsen, Mein Herz Bleibt Hier Tabs (ver.1)

Artists:  A B C D E F G H I J K L M N O P Q R S T U V W X Y Z # 

Mein Herz Bleibt Hier Tabs (ver.1)

Madsen Tabs
Rating:
5/5 (2 votes)
Mein Herz Bleibt Hier lessons Tabs too difficult? Try these video lessons and learn fast
                -------------------------------------------------------------------------------
-------------------------------------------------------------------------------

Tuning:Standard


Verse

Git. 1
e|---------------------------------------------------------------------------|
B|-----11-11-11-11-11-----10-10-10-10-10----6-6-6-6-6---8-8-8-8-8------------|
G|-----12-12-12-12-12-----10-10-10-10-10----7-7-7-7-7---8-8-8-8-8------------|
D|-----12-12-12-12-12-----10-10-10-10-10----8-8-8-8-8---8-8-8-8-8------------|
A|-----10-10-10-10-10-----8--8--8--8--8-----8-8-8-8-8---6-6-6-6-6------------|
E|------------------------------------------6-6-6-6-6------------------------|

Git. 2
e|-----15--------------------------------------------------------------------|
B|--------15-18----15-------15-----------------------------------------------|
G|--------------17----15-17-------X4-----------------------------------------|
D|---------------------------------------------------------------------------|
A|---------------------------------------------------------------------------|
E|---------------------------------------------------------------------------|


Prechorus

Git. 1
e|---------------------------------------------------------------------------|
B|---------------------------------------------------------------------------|
G|-----5-5-5-5----6-6-6-6----------------------------------------------------|
D|-----5-5-5-5----5-5-5-5----------------------------------------------------|
A|-----3-3-3-3----4-4-4-4----------------------------------------------------|
E|---------------------------------------------------------------------------|

Git. 2
e|---------------------------------------------------------------------------|
B|---------------------------------------------------------------------------|
G|-----5-5-5-5----6-6-6-6----------------------------------------------------|
D|-----x-x-x-x----x-x-x-x----------------------------------------------------|
A|-----3-3-3-3----4-4-4-4----------------------------------------------------|
E|---------------------------------------------------------------------------|


Chorus

Git. 1
e|--------------------------------------------------------------------------------|
B|--6---------------------------------------3-------------------5-----------------|
G|--7-------------------7-------------------3-------------------5-----------------| x2
D|--7-------------------8-------------------5-------------------5-----------------|
A|--5-------------------8-------------------5-------------------3-----------------|
E|----------------------6-------------------3-------------------------------------|

Git. 2
e|--------------------------------------------------------------------------------|
B|--------------------------------------------------------------------------------|
G|--7-7-7/-101010\9-9---7-7-7/-101010\9-9---7-7-7/-101010\9-9—--5-5-5/-101010\9-9-| x2
D|--x-x-x/-x-x-x-\x-x---x-x-x/-x-x-x-\x-x---x-x-x/-x-x-x-\x-x---x-x-x/-x-x-x-\x-x-|
A|--5-5-5/-8-8-8-\7-7---5-5-5/-8-8-8-\7-7---5-5-5/-8-8-8-\7-7—--3-3-3/-8-8-8-\7-7-|
E|--------------------------------------------------------------------------------|

Git. 1
e|--------------------------------------------------------------------------------|
B|---3------------------5-------------------3-------------------5-----------------|
G|---3------------------5-------------------3-------------------5-----------------|
D|---5------------------5-------------------5-------------------5-----------------|
A|---5------------------3-------------------5-------------------3-----------------|
E|---3--------------------------------------3-------------------------------------|

Git. 2
e|--------------------------------------------------------------------------------|
B|--------------------------------------------------------------------------------|
G|--7-7-7/-101010\9-9---5-5-5/-101010\9-9---7-7-7/-101010\9-9—--5-5-5/-101010\9-9-| 
D|--x-x-x/-x-x-x-\x-x---x-x-x/-x-x-x-\x-x---x-x-x/-x-x-x-\x-x---x-x-x/-x-x-x-\x-x-|
A|--5-5-5/-8-8-8-\7-7---3-3-3/-8-8-8-\7-7---5-5-5/-8-8-8-\7-7—--3-3-3/-8-8-8-\7-7-|
E|--------------------------------------------------------------------------------|


************************************

| /   slide up
| \   slide down
| h   hammer-on
| p   pull-off
| ~   vibrato
| +   harmonic
| x   Mute note
| b   Bend
| pb  Pre-bend
| br  Bend release
| pbr Pre-bend release
| brb Bend release bend

************************************
            

comments powered by Disqus
↑ Back to top | Madsen Tabs for Mein Herz Bleibt Hier. Lyrics for acoustic guitar and electric guitar. Tablatures and chords are parodies/interpretations of the original songs. You may use it for private study, scholarship, research or language learning purposes only