» » »

Im Dunkeln Tabs (ver.1)

Artists:  A B C D E F G H I J K L M N O P Q R S T U V W X Y Z # 

Im Dunkeln Tabs (ver.1)

Madsen
Rating:
0/5 (0 votes)

Hard to play? Try these video lessons and learn fast.
                Hello, that's my first tab and i think it's pretty good...
I love this song.

Tuning: Standart
Difficulty: Novice

Intro


E|------------|------------|------------|------------|
B|-----0------|-----0------|-----0------|-----0------|
G|---0---0----|---0---0----|---0---0----|---0---0----|
D|------------|------------|------------|------------|
A|------------|------------|-3----------|-3----------|
E|-3----------|-3----------|------------|------------|

E|------------|------------|------------|
B|-----0------|-----0------|-----0-1-0--|
G|---0---0----|---0---0----|---0--------|
D|------------|------------|------------|
A|------------|------------|-3----------|
E|-3----------|-3----------|------------|


Verse 1


E|------------|------------|------------|------------|
B|-----0------|-----0------|-----0------|-----0------|
G|---0---0----|---0---0----|---0---0----|---0---0----|
D|------------|------------|------------|------------|
A|------------|------------|-3----------|-3----------|
E|-3----------|-3----------|------------|------------|
Der Vorhang zu, das Licht geht aus, /
Ein Blick zurück, dann wird es still, 
                                                               x2
E|-----0------|-----0------|-----0---2-2|    
B|---1---1----|---1---1----|---1---1-(1)|
G|------------|------------|------------|
D|------------|------------|-0----------|
A|-0----------|-0----------|------------|
E|------------|------------|------------|
es ist Vorbei, das war der letzte Applaus. /
von Niemandem ein Wort, weil Niemand etwas sagen will. 


Interlude:

G                  Em
Denn das ist jetzt der Moment, 
       G               Em
in dem alles Endet und neu Beginnt. 
  Am                   D7
Wohin wollen wir jetzt gehen?


Chorus:

     G
Noch nie war es so schön, 
   C
im Dunkeln zu stehen. 
     G
Noch nie war es so schön, 
C
gar nichts zu sehen. 
     G
Noch nie war es so leicht, 
    C
die Dinge zu verstehen. 
    Am                           D7               
Ich freue mich schon jetzt darauf dich wieder zu sehen. 


Bridge  (like Intro)


E|------------|------------|------------|------------|
B|-----0------|-----0------|-----0------|-----0------|
G|---0---0----|---0---0----|---0---0----|---0---0----|
D|------------|------------|------------|------------|
A|------------|------------|-3----------|-3----------|
E|-3----------|-3----------|------------|------------|

E|------------|------------|------------|
B|-----0------|-----0------|-----0-1-0--|
G|---0---0----|---0---0----|---0--------|
D|------------|------------|------------|
A|------------|------------|-3----------|
E|-3----------|-3----------|------------|



Verse 2


E|------------|------------|------------|------------|
B|-----0------|-----0------|-----0------|-----0------|
G|---0---0----|---0---0----|---0---0----|---0---0----|
D|------------|------------|------------|------------|
A|------------|------------|-3----------|-3----------|
E|-3----------|-3----------|------------|------------|
Die Masken ab, nichts mehr Perfekt. /
Keiner weint und keiner lacht,  
                                                               x2
E|-----0------|-----0------|-----0---2-2|    
B|---1---1----|---1---1----|---1---1-(1)|
G|------------|------------|------------|
D|------------|------------|-0----------|
A|-0----------|-0----------|------------|
E|------------|------------|------------|
Wir brauchen uns nichts Vorzuspielen, die Zuschauer sind weg. /
die Tür geht zu und wir sagen gute Nacht. 


Interlude:

G                  Em
Denn das ist jetzt der Moment, 
       G               Em
in dem alles Endet und neu Beginnt. 
  Am                  D7
Wohin willst du jetzt gehen?



Chorus:

     G
Noch nie war es so schön, 
   C
im Dunkeln zu stehen. 
     G
Noch nie war es so schön, 
C
gar nichts zu sehen. 
     G
Noch nie war es so leicht, 
    C
die Dinge zu verstehen. 
    Am                           D7               Am        
Ich freue mich schon jetzt darauf dich wieder zu sehen... 
D7                 
dich wieder zu sehen. 


Bridge  

           
E|------------|------------|------------|
B|-----0------|-----0------|-----0-1-0--|
G|---0---0----|---0---0----|---0--------|           x3
D|------------|------------|------------|
A|------------|------------|-3----------|
E|-3----------|-3----------|------------|

E|-----0------|-----0------|-----0---2-2|    
B|---1---1----|---1---1----|---1---1-(1)|
G|------------|------------|------------|
D|------------|------------|-0----------|
A|-0----------|-0----------|------------|
E|------------|------------|------------|


Chorus:

     G
Noch nie war es so schön, 
   C
im Dunkeln zu stehen. 
     G
Noch nie war es so schön, 
C
gar nichts zu sehen. 
     G
Noch nie war es so leicht, 
    C
die Dinge zu verstehen; 
    Am                           D7               
Ich freue mich schon jetzt darauf dich wieder zu sehen. 

Outro

G C G C G
            
Hard to play? Try these video lessons and learn fast. | Correct




comments powered by Disqus
↑ Back to top | Tablatures and chords are parodies/interpretations of the original songs. You may use it for private study, scholarship, research or language learning purposes only