» » »

Madsen, Du Schreibst Geschichte Tabs (ver.1)

Artists:  A B C D E F G H I J K L M N O P Q R S T U V W X Y Z # 

Du Schreibst Geschichte Tabs (ver.1)

Madsen Tabs
 Rating:
4/5 (8 votes)
Du Schreibst Geschichte lessons Tabs too difficult? Try these video lessons and learn fast
1
                

Madsen-Du Schreibst Geschichte

Tuning:EADGBe



e|8--8---8--8-|8--8---8--8-|
H|9--9---8--8-|9--9---11-11|     (2x)
G|10-10--10-10|10-10--10-10|   
D|10-10--10-10|10-10--10-10|
A|8--8---8--8-|8--8---8--8-|
E|------------|------------|


e|-----------|------------|                  
A|-----------|------------|      (1x)   
G|6--6---6--6|8--8---8--8-|   
D|8--8---8--8|10-10--10-10|
A|8--8---8--8|10-10--10-10|
E|6--6---6--6|8--8---8--8-|


e|8--8---8--8-|8--8---8--8-|
H|9--9---8--8-|9--9---11-11|     (3x)
G|10-10--10-10|10-10--10-10|   
D|10-10--10-10|10-10--10-10|
A|8--8---8--8-|8--8---8--8-|
E|------------|------------|


e|-----------|------------|
H|-----------|------------|      (1x)   
G|6--6---6--6|8--8---8--8-|   
D|8--8---8--8|10-10--10-10|
A|8--8---8--8|10-10--10-10|
E|6--6---6--6|8--8---8--8-|


e|8--8---8--8-|8--8---8--8-|
H|9--9---8--8-|9--9---9--9-|
G|10-10--10-10|10-10--10-10|
D|10-10--10-10|10-10--10-10|
A|8--8---8--8-|8--8---8--8-|
E|------------|------------|


e|----------------|----------------|
H|----------------|----------------|
G|6-6-6-6-5-5-5-5-|----------------|
D|6-6-6-6-5-5-5-5-|3-3-3-3-3-3-3-3-|
A|4-4-4-4-3-3-3-3-|3-3-3-3-3-3-3-3-|
E|----------------|1-1-1-1-1-1-1-1-|


e|----------------|----------------|
H|----------------|----------------|
G|6-6-6-6-5-5-5-5-|3-3-3-3-88888888|
D|6-6-6-6-5-5-5-5-|3-3-3-3-88888888|
A|4-4-4-4-3-3-3-3-|1-1-1-1-66666666|
E|----------------|----------------|


e|----------------|----------------|
H|----------------|----------------|
G|----------------|----------------|
D|3333333333333333|8888888888888888|
A|3333333333333333|8888888888888888|
E|1111111111111111|6666666666666666|



e|----------------|----------------|
H|----------------|----------------|
G|6666666666666666|--------55555555|
D|6666666666666666|6666666655555555|
A|4444444444444444|6666666633333333|
E|----------------|44444444--------|


e|----------------|----------------|
H|----------------|----------------|
G|----------------|----------------|
D|3333333333333333|8888888888888888|
A|3333333333333333|8888888888888888|
E|1111111111111111|6666666666666666|


e|----------------|----------------|
H|----------------|----------------|
G|6666666666666666|3333333355555555|
D|6666666666666666|3333333355555555|
A|4444444444444444|1111111133333333|
E|----------------|----------------|



e|8--8---8--8-|8--8---8--8-|
H|9--9---8--8-|9--9---11-11|     (4x)
G|10-10--10-10|10-10--10-10|   
D|10-10--10-10|10-10--10-10|
A|8--8---8--8-|8--8---8--8-|
E|------------|------------|


e|-----------|------------|
H|-----------|------------|      (1x)   
G|6--6---6--6|8--8---8--8-|   
D|8--8---8--8|10-10--10-10|
A|8--8---8--8|10-10--10-10|
E|6--6---6--6|8--8---8--8-|



e|8--8---8--8-|8--8---8--8-|
H|9--9---8--8-|9--9---11-11|     (3x)
G|10-10--10-10|10-10--10-10|   
D|10-10--10-10|10-10--10-10|
A|8--8---8--8-|8--8---8--8-|
E|------------|------------|


e|-----------|------------|
H|-----------|------------|      (1x)   
G|6--6---6--6|8--8---8--8-|   
D|8--8---8--8|10-10--10-10|
A|8--8---8--8|10-10--10-10|
E|6--6---6--6|8--8---8--8-|


e|8--8---8--8-|8--8---8--8-| 
H|9--9---8--8-|9--9---9--9-|     (1x)
G|10-10--10-10|10-10--10-10|
D|10-10--10-10|10-10--10-10|
A|8--8---8--8-|8--8---8--8-|
E|------------|------------|



e|----------------|----------------|
H|----------------|----------------|
G|6-6-6-6-5-5-5-5-|----------------|
D|6-6-6-6-5-5-5-5-|3-3-3-3-3-3-3-3-|
A|4-4-4-4-3-3-3-3-|3-3-3-3-3-3-3-3-|
E|----------------|1-1-1-1-1-1-1-1-|


e|----------------|----------------|
H|----------------|----------------|
G|6-6-6-6-5-5-5-5-|3-3-3-3-88888888|
D|6-6-6-6-5-5-5-5-|3-3-3-3-88888888|
A|4-4-4-4-3-3-3-3-|1-1-1-1-66666666|
E|----------------|----------------|


e|----------------|----------------|
H|----------------|----------------|
G|----------------|----------------|
D|3333333333333333|8888888888888888|
A|3333333333333333|8888888888888888|
E|1111111111111111|6666666666666666|



e|----------------|----------------|
H|----------------|----------------|
G|6666666666666666|--------55555555|
D|6666666666666666|6666666655555555|
A|4444444444444444|6666666633333333|
E|----------------|44444444--------|


e|----------------|----------------|
H|----------------|----------------|
G|----------------|----------------|
D|3333333333333333|8888888888888888|
A|3333333333333333|8888888888888888|
E|1111111111111111|6666666666666666|


e|----------------|----------------|
H|----------------|----------------|
G|6666666666666666|3333333355555555|
D|6666666666666666|3333333355555555|
A|4444444444444444|1111111133333333|
E|----------------|----------------|


e|8--8---8--8-|8--8---8--8-|
H|9--9---8--8-|9--9---11-11|     (4x)
G|10-10--10-10|10-10--10-10|   
D|10-10--10-10|10-10--10-10|
A|8--8---8--8-|8--8---8--8-|
E|------------|------------|


e|-----------|------------|
H|-----------|------------|      (1x)   
G|6--6---6--6|8--8---8--8-|   
D|8--8---8--8|10-10--10-10|
A|8--8---8--8|10-10--10-10|
E|6--6---6--6|8--8---8--8-|



e|8--8---8--8-|8--8---8--8-|
H|9--9---8--8-|9--9---11-11|     (1x)
G|10-10--10-10|10-10--10-10|   
D|10-10--10-10|10-10--10-10|
A|8--8---8--8-|8--8---8--8-|
E|------------|------------|


e|-----------|------------|
H|-----------|------------|      (1x)   
G|6--6---6--6|8--8---8--8-|   
D|8--8---8--8|10-10--10-10|
A|8--8---8--8|10-10--10-10|
E|6--6---6--6|8--8---8--8-|


e|8--8---8--8-|8--8---8--8-| 
H|9--9---8--8-|9--9---9--9-|     (1x)
G|10-10--10-10|10-10--10-10|
D|10-10--10-10|10-10--10-10|
A|8--8---8--8-|8--8---8--8-|
E|------------|------------|


e|----------------|----------------|
H|----------------|----------------|
G|6-6-6-6-5-5-5-5-|----------------|
D|6-6-6-6-5-5-5-5-|3-3-3-3-3-3-3-3-|
A|4-4-4-4-3-3-3-3-|3-3-3-3-3-3-3-3-|
E|----------------|1-1-1-1-1-1-1-1-|


e|----------------|----------------|
H|----------------|----------------|
G|6-6-6-6-5-5-5-5-|3-3-3-3-88888888|
D|6-6-6-6-5-5-5-5-|3-3-3-3-88888888|
A|4-4-4-4-3-3-3-3-|1-1-1-1-66666666|
E|----------------|----------------|


e|----------------|----------------|
H|----------------|----------------|
G|----------------|----------------|
D|3333333333333333|8888888888888888|
A|3333333333333333|8888888888888888|
E|1111111111111111|6666666666666666|



e|----------------|----------------|
H|----------------|----------------|
G|6666666666666666|--------55555555|
D|6666666666666666|6666666655555555|
A|4444444444444444|6666666633333333|
E|----------------|44444444--------|


e|----------------|----------------|
H|----------------|----------------|
G|----------------|----------------|
D|3333333333333333|8888888888888888|
A|3333333333333333|8888888888888888|
E|1111111111111111|6666666666666666|


e|----------------|----------------|
H|----------------|----------------|
G|6666666666666666|3333333355555555|
D|6666666666666666|3333333355555555|
A|4444444444444444|1111111133333333|
E|----------------|----------------|


e|-----------------------|
E|-----------------------|
H|9--9--8--8--9--9--11-11|
G|10-10-10-10-10-10-10-10|     (2x)
D|10-10-10-10-10-10-10-10|
A|8--8--8--8--8--8--8--8-|
E|-----------------------|


e|8--8---8--8-|8--8---8--8-|
H|9--9---8--8-|9--9---11-11|     (1x)
G|10-10--10-10|10-10--10-10|   
D|10-10--10-10|10-10--10-10|
A|8--8---8--8-|8--8---8--8-|
E|------------|------------|
            
Submit corrections

comments powered by Disqus
↑ Back to top | Madsen Tabs for Du Schreibst Geschichte. Lyrics for acoustic guitar and electric guitar. 1 Tablatures and chords are parodies/interpretations of the original songs. You may use it for private study, scholarship, research or language learning purposes only