» » »

Wake Up 2 Bass

Artists:  A B C D E F G H I J K L M N O P Q R S T U V W X Y Z # 

Wake Up 2 Bass

(ver. 3)
Mad Season Tabs
 Rating:
4/5 (4 votes)
    Wake Up lessons Tabs too difficult? Try these video lessons and learn fast
                                         Tab by 13Zmag13
I've noticed all the ones on here got half of it, so I figured out the other half

Intro:
  G |--------------------------------------|
  D |-7---7----7--------10-11-12-10------7-|  play 4 times
  A |---7----7---7--10--------------10-7---|
  E |--------------------------------------|
     After playing four times, it changes just a bit, it plays it down an octave after 
the first seven notes

  G |----------------------------------|
  D |-7---7----7---------------------7-|
  A |---7----7---7--10--3-4-5--3-------|
  E |----------------------------3-0---|


   I hope this helps, this is all I have gotten out of the song. Enjoy
            
Submit corrections

↑ Back to top | Mad Season Bass for Wake Up. Lyrics for acoustic guitar and electric guitar. Tablatures and chords are parodies/interpretations of the original songs. You may use it for private study, scholarship, research or language learning purposes only