>
 >
River Of Deceit

River Of Deceit Bass Tabs

Mad Season - River Of Deceit chords, tabs, tablatures, lyrics

Guitar lessons | Add/correct | Request | Top 50 tabs Artists:  A B C D E F G H I J K L M N O P Q R S T U V W X Y Z 0-9

River Of Deceit Bass Tabs – Mad Season

CD, Sheet music, Poster

Do you like River Of Deceit? Share with your friends now
Bass TabsTabsTabs v2
#------------------------------------------------------------------------------##
Mad Season - River of Deceit



|---------|---------|---------|-------------|--------------------------|
|---------|---------|---------|-------------|-5--5----5----------------|
|---------|---------|---------|----------5--|------------5-------------|
|---------|-1-------|--0------|--3----------|--------------------------|
                                                                        
                                                                        
|----------------|----------------|--------------|---------------------|
|--3----3--------|----------------|-3----3-------|-5----5--------------|
|-------------5--|-----------3--5-|-----------5--|-----------3---5-----|
|----------------|-3----3---------|--------------|---------------------|
                                                                        
                                                                        
|----------------|-----------------|--------------|--------------------|
|-3----3---------|-----------------|-3----3-------|--5-----------------|
|-------------5--|-----------3--5--|-----------5--|--------------5-----|
|----------------|-3----3----------|--------------|--------------------|
                                                                        
Verse My pain is self chosen...                                        
|----------------|----------------|--------------|---------------------|
|--3----3--------|----------------|-3----3-----3-|-5----5--------------|
|-------------5--|-----------3--5-|---------5----|-----------3-4-5-----|
|----------------|-3----3---------|--------------|---------------------|
                                                                        
                                                                        
|----------------|----------------|--------------|---------------------|
|--3----3--------|----------------|-3----3-------|-5----9---10---12----|
|-------------5--|-----------3--5-|-----------5--|---------------------|
|----------------|-3----3---------|--------------|---------------------|
                                                                        
                                                                        
                                                                        
|--------------|---------------------|------------------|------------------|
|-10-----------|--3h5---5--5---------|-3----3----3------|------------------|
|--------5-----|----------------3--5-|----------------5-|-------------0-2--|
|--------------|---------------------|------------------|-3-3-3-3-3-3------|
                                                                        
                                                                        
Chorus
                 The river of deceit...
|---------------|-----------------|------------|-----------------------|
|---------------|-----------------|------------|-----------------------|
|--3----3----3--|--5----5---0--2--|--3----3----|-5--5--5---------------|
|---------------|-----------------|------------|--------------3---5----|


|---------------------|-----------------------|----------------|-------|
|---------------------|-----------------------|----------------|-------|
|-3----3--3--------3--|-5---5--5----5---------|-3---3--3-------|-5--5--|
|---------------5-----|-----------------3--5--|-------------5--|-------|
                                                                        
Down,  oh down...                                                       
|-----------|---------------------|--------------|---------------------|
|-3---------|---5----5------------|-3------------|---------------------|
|-----------|-------------3----5--|---------5----|---------------------|
|-----------|---------------------|--------------|--3----3----3----3---|
                                                                        
                                                                        
|--------------|----------------------|-----------|---------------------|
|-3-------3----|-5----9----10----12---|-10---10---|-3h5--5--5--5--5-----|
|-----5--------|----------------------|-----------|-----------------3-5-|
|--------------|----------------------|-----------|---------------------|
                                                                        
                                                                        
|----------------|----------------|-------------|----------------------|
|-3--3-----3-----|----------------|-------------|----------------------|
|-------------5--|----------------|-------------|---------3----5-------|
|----------------|-3----3------0--|-1---1----1--|-3---3----------------|
                                                                        
                                                             My
|----------------|----------------|--------------|---------------------|
|--3----3--------|----------------|-3----3-------|-5----5--------------|
|-------------5--|-----------3--5-|-----------5--|-----------3---5-----|
|----------------|-3----3---------|--------------|---------------------|
                                                                        
     pain is self chosen...                                             
|-------------|------------------|---------------|---------------------|
|--3-------3--|--5----5----------|-3----3--------|---------------------|
|-------5-----|-----------3---5--|---------5-----|-----------3----5----|
|-------------|------------------|---------------|-3----3--------------|
                                                                        
                                                                        
|-------------|------------------|---------------|---------------------|
|--3----------|--5----5----------|-3----3--------|---------------------|
|----------5--|-----------3---5--|---------5-----|-----------3----5----|
|-------------|------------------|---------------|-3----3--------------|
                                                                        
                                                                        
|-------------|------------------|---------------|---------------------|
|--3---3------|--5----5----------|-3----3--------|---------------------|
|-----------5-|-----------0-3--5-|---------3--5--|-----------2----5----|
|-------------|------------------|---------------|-3----3--------------|
                                                                        
                                                                        
|-------------|------------------|---------------|---------------------|
|--3--3-------|--5---------------|-3----3---3----|---------------------|
|-------5-3---|-----------2---5--|-------------5-|---------------------|
|-------------|-----3------------|---------------|-3-3-3-3-3-----3--5--|


Chorus
|------------------|---------------------|---------------------|--------
|------------------|---------------------|---------------------|--------
|-3--3--3----3-----|-5---5--5----5-------|-3---3--3----3-----3-|-5----5-
|---------------5--|----------------3--5-|----------------5----|--------
                                                                        
                                                                        
---------------|------------------|--------------------|----------------|
---------------|------------------|--------------------|----------------|
-5----5-----3--|-3--3--3----3-----|-5--5--5----5-------|-3---3--3----3--|
---------5-----|---------------5--|---------------3--5-|---------------5|
                                                                        
                                                                        
|-------------------------|
|-------------------------|
|-5--5--5--5--5--5--5--5--|
|-------------------------|
                                                                        
                                                                        
Down,  oh, down...

|-----/7----5------|----------------|--------------|-------------------|
|-3-------------7--|-5-----------2--|--3--3---2--0-|-------------------|
|------------------|------3--5------|--------------|-3--0--------3--5--|
|------------------|----------------|--------------|-------3-----------|
                                                                        
                                                                        
|----/7----5------|---------------|-------------|-----------------------|
|--------------7--|-5-----------2-|--3---3---0--|-5--5--5--5------------|
|-3---------------|------3--5-----|-------------|-----------------3--5--|
|-----------------|---------------|-------------|-----------------------|
                                                                        
                                                                        
|-------------|----------------------|------------------|---------------|
|--3-------3--|--5-------------------|-3-----3-----3----|--5--5---------|
|-------5-----|-----------------3--5-|----------5-----5-|----------3--5-|
|-------------|-------3---3----------|------------------|---------------|
                                                                        
                                                                        
|----------------|-------------------|-------------|--------------------|
|--3---3---3-----|-------------------|-3----3------|--5----5------------|
|-------------5--|-------------3---5-|-----------5-|--------------3---5-|
|----------------|--3----3-----------|-------------|--------------------|
                                                                        
                                                                        
|-----------------|-----------------|-----------------|----------------|
|-3----3----3-----|-----------------|--3----3----3----|------5---------|
|--------------5--|-----------3---5-|---------------5-|----------3--5--|
|-----------------|-3----3----------|-----------------|-3--------------|
                                                                        
                                                                        
|---------------|------------------|---------------|-------|------|-----|
|--3--3--3------|-------5----------|--3--3--3------|-------|------|-----|
|------------5--|-----------3---5--|------------5--|-------|------|-----|
|---------------|--3---------------|---------------|--3----|-(3)--|-(3)-|



=======================================================================
h = hammeron                    Judy Letostak                         
t = tap (right hand)            The Music Shop BBS (619)423-4970 24hrs
~ = vibrato                     * = picked harmonic
bf = bend full                  tr = trill
rb = release bend               p.s. = pick scrape
dive = dive with bar            b = bend / step written over note
========================================================================
The Music Shop BBS (619)423-4970  24hrs 7 days a week
will take anything that can be put on a computer...Lyrics, pictures, sound
Also have a menu for bands to put up Biographies, reviews of shows, demos,
gig advertisements, and you can sell your demo/CD here as well...And it's
absolutely FREE!  






Comments


Popular Mad Season tabs & chords
Artificial Red 1 Bass Tabs
Long Gone Day Bass Tabs
Wake Up Bass Tabs
I Don't Know Anything Tabs
I Don't Know Anything 1 Tabs
I'm Above Tabs
Long Gone Day Tabs
River Of Deceit Tabs
River Of Deceit 1 Tabs
X Ray Mind Tabs


Song lyrics



↑ Back to top | Tablatures and chords are parodies/interpretations of the original songs. You may use it for private study, scholarship, research or language learning purposes only
© 2014 AZChords.com Contact us | Privacy policy | DMCA | Add/correct tabs | Request tabs | Top 50 tabs