>
 >
November Hotel 2

November Hotel 2 Guitar Tabs

Mad Season - November Hotel 2 chords, tabs, tablatures, lyrics

Guitar lessons | Add/correct | Request | Top 50 tabs Artists:  A B C D E F G H I J K L M N O P Q R S T U V W X Y Z 0-9

November Hotel 2 Guitar Tabs – Mad Season

CD, Sheet music, Poster

Do you like November Hotel 2? Share with your friends now
TabsTabs v2
-|----------------------|---------------------------|-------------------------|
-|---------------12-----|-12----12----12-----12-----|-------------------------|
-|--16--14--16---14b16--|-14b16-14b16-14b16--14b16--|--14b16r14p12----12-14---|
-|--14--12--14----------|---------------------------|--------------14---------|
-|---/---/--/-----------|---------------------------|-------------------------|
-|---/---/--/-----------|---------------------------|-------------------------|
    tremolo picking                              2x

-|----------|--------------------------------------|---------------------------|
-|----------|--------------------------------------|---------------------------|
-|--12------|-12-14-12----12-14-12----12-14-12-----|--14h16p14-----16----------|
-|-----14--|----------14----------14----------14--|-----------14---------------|
-|----------|--------------------------------------|---------------------------|
-|----------|--------------------------------------|---------------------------|
                                                2x

-|---------------------------------------------------------15b17--12-----15---|
-|--17p15h17p15h17p15h17p15---------------------------------------15b17-------|
-|---------------------------16-14-12h14p12h14p12h14p12-14--------------------|
-|----------------------------------------------------------------------------|
-|----------------------------------------------------------------------------|
-|----------------------------------------------------------------------------|

-|--12------------------------------------15b17-r15-12------------------------|
-|-----12-15-15b17--r15p12-----------------------------15-12------------------|
-|-------------------------12h14p12----12--------------------14-12-----14p12--|
-|----------------------------------14-----------------------------14---------|
-|----------------------------------------------------------------------------|
-|----------------------------------------------------------------------------|

-|-----------------------------------------------------------------------------|
-|------------------------------17---16--15--14--13--12-10--8--5---------------|
-|-------------------------------x----x---x---x---x---x--x--x--x---------------|
-|-14-12------------------------14---13--12--11--10---9--7--5--2---------------|
-|-------14-13-12----12b-------------------------------------------------------|
-|----------------13-----12vv-------------------------------------0------------|
                                                                    whammy

-|---------17b18---17b18--15--12-15-12-15-17b18r17p15----17b18-17b18r17p15----|
-|----------------------------------------------------17-------------------17-|
-|----------------------------------------------------------------------------|
-|----------------------------------------------------------------------------|
-|----------------------------------------------------------------------------|
-|------/---------------------------------------------------------------------|
   drop

-|-15----15----------15----------------------15--------------------------------|
-|----17----17p15-------17p15----15h17p15-------17p15--------------------------|
-|----------------16----------16----------16----------16-16p1412-12-12h14p12---|
-|-----------------------------------------------------------------------------|
-|-----------------------------------------------------------------------------|
-|-----------------------------------------------------------------------------|

-|----------------------------------------------------|-----------------------|
-|----------------------------------------------------|-----------------------|
-|----12-14b16r14p12----14b16r14p12----14b16r14p12----|-----------------------|
-|-14----------------14-------------14-------------14-|-12h14p12--------------|
-|----------------------------------------------------|----------14-13-12-10--|
-|----------------------------------------------------|-----------------------|
                                                  2x

-|---------------------------20b21--20b21r20----------------------------------|
-|-------------------------------------------17-------------------------------|
-|---------------------------------------------------2b4--2b4-2b4-2b4-2b4r2---|
-|--------------------------------------------------------------------------2-|
-|-12-10-12b14-12b14----------------------------------------------------------|
-|-------------------12-12----------------------0-0---------------------------|

-|----------------------------------------------------------------------------|
-|----------------------------------------------------------------------------|
-|-----2vv-5vv-6vv-7vv-8vv-9vv---14b15r14-12h14-------12h14-12----------------|
-|----------------------------------------------14vv-----------14--14-14-14---|
-|----------------------------------------------------------------------------|
-|-0--------------------------------------------------------------------------|

-|----------------------------------------------------------------------------|
-|-------------5---5-5--5--------5---5-5--5------5--5-5---5-5--5-5--5-5-------|
-|-------------------------7-7--------------7-7-------------------------7-7---|
-|-14b15r14-------------------------------------------------------------------|
-|----------------------------------------------------------------------------|
-|----------0-----------------------------------------------------------------|

-|------4-----4---------------------------------------------------------------|
-|--5---7b9vv-7b9vv-----12---------------------------------------12vvv--------|
-|----------------------------------------------------------------------------|
-|----------------------------14-12----12-14-----14-12----12-14---------14p12-|
-|----------------------------------14-----------------14---------------------|
-|----------------------------------------------------------------------------|
        delay!

-|-------------------|---------------------------|----------------------------|
-|-------------------|--15b17--15-12-------------|---15b17--b17-15-12----12---|
-|-------------------|---------------14-12-14-12-|--------------------14------|
-|-14p12-14p12-14p12-|---------------------------|----------------------------|
-|-------------------|---------------------------|----------------------------|
-|-------------------|---------------------------|----------------------------|
                                              2x

-|-----------------------------------------------------12------------12-------|
-|----12----15b17-b17-15-15b17-15-12-------------------15b17---------15b17----|
-|-14----14--------------------------14-12-14-12--12--------------------------|
-|------------------------------------------------14--------------------------|
-|----------------------------------------------------------------------------|
-|----------------------------------------------------------------------------|

-|-12----12-------------------------------------------------------------------|
-|-15b17-15b17--15b17-15b17-15b17--15b17---15b17-15b17-15b17-15b17--15-17-15--|
-|----------------------------------------------------------------------------|
-|----------------------------------------------------------------------------|
-|----------------------------------------------------------------------------|
-|----------------------------------------------------------------------------|

-|----------------------------------------------------------------------------|
-|-12-15-12----12-------------------------------------------------------------|
-|----------14----14-12-14-12---12h14p12----12--12h14p12-12h14p12-12-14-------|
-|---------------------------------------14-----------------------------------|
-|----------------------------------------------------------------------------|
-|----------------------------------------------------------------------------|

-|-----------------------------------------------15b17-15-17-15-17b19---------|
-|-12----12-------------------------------------------------------------------|
-|-14b16-14b16--12---------------------------14-------------------------------|
-|-----------------------12h14p12--14p12--------------------------------------|
-|-----------------12h14-----------------14-----------------------------------|
-|----------------------------------------------------------------------------|

-|-17b19-r17-17-------17b19--15-----15-------15----15-------------------15----|
-|--------------17b19------------17----17-------17----17-15-17-15----15-------|
-|----------------------------------------------------------------16----------|
-|----------------------------------------------------------------------------|
-|----------------------------------------------------------------------------|
-|----------------------------------------------------------------------------|

-|-------15------------------------------------------------------------12-----|
-|-17p15----17p15----------------14---------------------------------15----15--|
-|----------------14h16p14-------14--12--12h14p12--12h14p12h14-12-------------|
-|-------------------------14-17----------------------------------------------|
-|----------------------------------------------------------------------------|
-|----------------------------------------------------------------------------|

-|-----12----12-----12------14-----14----14-----15----15------15----15--------|
-|-12--15b17-15b17--15b17---17b19--17b19-17b19--18b20-18b20---18b20-18b20-----|
-|----------------------------------------------------------------------------|
-|----------------------------------------------------------------------------|
-|----------------------------------------------------------------------------|
-|----------------------------------------------------------------------------|

-|-------15-15-15-15-----------------------------12------14-----15------14----|
-|-15-15---------------12----12-----17-17-17-17--15b17---17b19--18b20---17b19-|
-|---------------------14b16-14b16---------------14b16------------------------|
-|----------------------------------------------------------------------------|
-|----------------------------------------------------------------------------|
-|----------------------------------------------------------------------------|

-|--12--------14------15------17------17--------------------------------------|
-|--15b17-r15-17b19---18b20---20b22---20b22-20--20b22r20--17h20p17----17------|
-|-----------------------------------------------------------------19---------|
-|----------------------------------------------------------------------------|
-|----------------------------------------------------------------------------|
-|----------------------------------------------------------------------------|

-|----------------------------------------------------------------------------|
-|-17h20p17----17-17h20p17----17--17h20p17----17-20p17----20p17----20p17------|
-|----------19-------------19--------------19----------19-------19-------19---|
-|----------------------------------------------------------------------------|
-|----------------------------------------------------------------------------|
-|----------------------------------------------------------------------------|

-|----------------------17-----------------------------------------|-----------|
-|-20p17----20p17----20---------/20-20-20-19-17-19-17--20-20-20-20-|--2019-----|
-|-------19-------19-------19-------------------------------------|------------|
-|-----------------------------------------------------17-17-17-17-|--1716-----|
-|-----------------------------------------------------------------|-----------|
-|-----------------------------------------------------------------|-----------|

-|-----------------------------------------------------------------------------|
-|-1917--1715--15/20-----------------12-------12----12-------------------------|
-|-------------------------------------14b16----14b16-14b16-----12----12-12----|
-|-1614--1412--12/17-12-12--12h14--------------------------------12------------|
-|-----------------------------------------------------------------------------|
-|-----------------------------------------------------------------------------|
                    2x

-|--------------7-------------------------------------------------7------------|
-|--------------10b*----------------------------------------------x----8-------|
-|--11----11vv----------12-------7---7---7----7---9-9--9-9-------7---------9---|
-|-----12---------------12-------7---------------------------------------------|
-|-----------------------------------------------------------------------------|
-|-----------------------------------------------------------------------------|
             *feedback

-|-----------------------------------------------------------------------------|
-|-----------------------------------------------------------------------------|
-|--9-9--7---/12-9vv-----9-----7-----129-------127----12---9----/12--7---------|
-|------------------------x------x-----x--x--------x-x-----x---x------x---x----|
-|------------------------7-----5-----107-------105----10---7-----10--5--------|
-|-----------------------------------------------------------------------------|

-|----------------------------------------------------------------------------|
-|----------------------------------------------------------------------------|
-|----------------------------------------------------------------------------|
-|----------------------------------------------------------------------------|
-|---7vv----------------------------------------------------------------------|
-|----------------------------------------------------------------------------|





Comments


Popular Mad Season tabs & chords
I Don't Know Anything Bass Tabs
Wake Up Bass Tabs
Wake Up 1 Bass Tabs
I Dont Know Chords
I Don't Know Anything Tabs
I Don't Know Anything 2 Tabs
I Dont Know Anything Intro Tabs
Lifeless Dead Tabs
River Of Deceit 1 Tabs
Wake Up Ukulele


Song lyrics



↑ Back to top | Tablatures and chords are parodies/interpretations of the original songs. You may use it for private study, scholarship, research or language learning purposes only
© 2014 AZChords.com Contact us | Privacy policy | DMCA | Add/correct tabs | Request tabs | Top 50 tabs