» » »

Mad Season, I'm Above Bass tabs (ver.1)

Artists:  A B C D E F G H I J K L M N O P Q R S T U V W X Y Z # 

I'm Above Bass tabs (ver.1)

Mad Season Tabs
Rating:
0/5 (0 votes)
I'm Above lessons Tabs too difficult? Try these video lessons and learn fast
                Band: Mad Season
Bassist: "Baker"

Tuning: Standard


Intro/Pre-Verse
G|-------------------------------------------|
D|-------------------------------------------|
A|---------------5---------------------------|
E|--0--0-0--5h7------------------------------|

Verse/Solo
G|-------------------------------------------|
D|-------------------------------------------|
A|-------------------------------------------|
E|--0--0-0----3--3-3----5--5-5----5--5-5-----|

Pre-Chorus
G|-------------------------------------------|
D|-------------------------------------------|
A|-------------------------------------------|
E|--0-0-0-0-0--0--3h5-5-3--------------------|

G|-------------------------------------------|
D|-------------------------------------------|
A|-------------------------5-----------------|
E|--0-0-0-0--0-0--0--0--7--------------------|

Chorus
G|-------------------------------------------|
D|-------------------------------------------|
A|-------------------------------------------|
E|--6-6-6-6--5-5--0----6-6-6-6--5-5-3--0-----|

G|-------------------------------------------|
D|-------------------------------------------|
A|-------------------------------------------|
E|--6-6-6-6--5-5--0----3----2----------------|


This is a great song from one of the grunge era’s most underrated albums. It’s a great 
to chill to. I am missing a fill toward the end in the last chorus. I suggest that you 
to the song to get order and rhythm down. Enjoy.
            
Submit corrections

comments powered by Disqus
↑ Back to top | Mad Season Bass for I'm Above. Lyrics for acoustic guitar and electric guitar. Tablatures and chords are parodies/interpretations of the original songs. You may use it for private study, scholarship, research or language learning purposes only