» » »

I Don Know Anything Bass tabs (ver.1)

Artists:  A B C D E F G H I J K L M N O P Q R S T U V W X Y Z # 

I Don Know Anything Bass tabs (ver.1)

Mad Season
Rating:
0/5 (0 votes)

Hard to play? Try these video lessons and learn fast.
                
This song is in the realm of insanity. Layne is the man. You might also recognise 
the guitar melody on Silverchair's "Slave" sounds strangely similar to this song. 
Anyway, here we go...

(Note: Play the "2b3" like a 1/2 bending hammer on. A light hammer, though.)

Verse 1
G-----------------------------------------------------------
D-----------------------------------------------------------  x4
A-----------------------------------------------------------
E---0r--0r--0-2b3---0r--0r--0-2b3---0r--0r--0-2b3---0r--0r--

Chorus 1
G---------------------------------------------------------
D---------------------------------------------------------
A-----------------------------1-----------1-0-0-000-------
E--0---0--0-0--0-2--3--0--0-0----------------------0-2b3--

G----------------------------------------------------------
D----------------------------------------------------------
A-----------------------------1-----------1-0-0-0-0--------
E--0---0--0-0--0-2--3--0--0-0-----------------------0-2b3--

Verse 2
G-----------------------------------------------------------
D----------------------------------------------------------- x2
A-----------------------------------------------------------
E---0r--0r--0-2b3---0r--0r--0-2b3---0r--0r--0-2b3---0r--0r--

G--------------------------------------------------------------
D--------------------------------------------------------------
A--------------------------------------------------------------
E---0r--0r--0-22b3---0r--0r--0-22b3---0r--0r--0-22b3---0r--0r--

Chorus 2
G---------------------------------------------------------
D---------------------------------------------------------
A-----------------------------1-----------1-0-0-000-------
E--0---0--0-0--0-2--3--0--0-0----------------------0-2b3--

G---------------------------------------------------------
D---------------------------------------------------------
A-----------------------------1-----------1-0-0-000-------
E--0---0--0-0--0-2--3--0--0-0----------------------0-2b3--

G---------------------------------------------------------
D---------------------------------------------------------
A-----------------------------1-----------1-0-0-000-------
E--0---0--0-0--0-2--3--0--0-0----------------------0-2b3--

G----------------------------------------------------------
D----------------------------------------------------------
A-----------------------------1-----------1-0-0-0-0--------
E--0---0--0-0--0-2--3--0--0-0-----------------------0-2b3--

Solo (Mimics the 1st guitar...)
G-------------------------------------------------------------------------------
D--0-------0-------0-------0-------0-------0-------0-------0-------0------------
A----1-------1-------1-------1-------1-------1-------1-------1-------1----------
E-------0-------0-------0-------0-------0-------0-------0-------0-------0-0-2b3-

Verse 3
G-----------------------------------------------------------
D-----------------------------------------------------------  x2
A-----------------------------------------------------------
E---0r--0r--0-2b3---0r--0r--0-2b3---0r--0r--0-2b3---0r--0r--

G--------------------------------------------------------------
D--------------------------------------------------------------
A--------------------------------------------------------------
E---0r--0r--0-22b3---0r--0r--0-22b3---0r--0r--0-22b3---0r--0r--

Chorus 3
G---------------------------------------------------------
D---------------------------------------------------------
A-----------------------------1-----------1-0-0-000-------
E--0---0--0-0--0-2--3--0--0-0----------------------0-2b3--

G---------------------------------------------------------
D---------------------------------------------------------
A-----------------------------1-----------1-0-0-000-------
E--0---0--0-0--0-2--3--0--0-0----------------------0-2b3--

G---------------------------------------------------------
D---------------------------------------------------------
A-----------------------------1-----------1-0-0-000-------
E--0---0--0-0--0-2--3--0--0-0----------------------0-2b3--

G----------------------------------------------------------
D----------------------------------------------------------
A-----------------------------1-----------1-0-0-0-0--------
E--0---0--0-0--0-2--3--0--0-0-----------------------0-2b3--

Outro (Mimics the 1st guitar....)
G------------------------------------------------------------------
D--0-------0-------0-------0-------0-------0-------0-------0-------
A----1-------1-------1-------1-------1-------1-------1-------1-----
E-------0-------0-------0-------0-------0-------0-------0-------0--

G------------------------------------------------------------------
D--0-------0-------0-------0-------0-------0-------0-------0-------
A----1-------1-------1-------1-------1-------1-------1-------1--2--
E-------0-------0-------0-------0-------0-------0-------0-------0--


Okay. This is what I came up with. I know this isn't 100% accurate, but it sounds just
fine when I play it. I'll add more Mad Season tabs a bit later when I finish my 
Snowball. Enjoy.
            
Hard to play? Try these video lessons and learn fast. | Correct




comments powered by Disqus
↑ Back to top | Tablatures and chords are parodies/interpretations of the original songs. You may use it for private study, scholarship, research or language learning purposes only