» » »

Madrugada, Kids Are On High Street Bass tabs (ver.1)

Artists:  A B C D E F G H I J K L M N O P Q R S T U V W X Y Z # 

Kids Are On High Street Bass tabs (ver.1)

Madrugada Tabs
 Rating:
4.2/5 (5 votes)
Kids Are On High Street lessons Tabs too difficult? Try these video lessons and learn fast
                Madrugada - The Kids Are On High Street

This is my first tab so bare with me

verse 0:05
G|------------------||
D|------------------||
A|-----6---6--------||
E|8------------6----|| x2

pre-chorus 0:24
G|------------------||
D|------------------||
A|------------------||
E|1-11-8-88-6-66-4-6|| x2

this is where the bass really comes in
bridge 0:47
G|------------------------------------||
D|------------------------------------||
A|-------6666666-0-4\6-6666666--------||
E|8888888---------------------6666666-|| x2

verse 2
G|------------------------------------||
D|------------------------------------||
A|-------6-6-6-6-0-4\6-6-6-6-6--------||
E|8-8-8-8---------------------6-6-6-6-|| x2
   
pre-chorus 1:44
G|------------------||
D|------------------||
A|------------------||
E|1-11-8-88-6-66-4-6|| x2

bridge 2:06
G|------------------------------------||
D|------------------------------------||
A|-------6666666-0-4\6-6666666--------||
E|8888888---------------------6666666-|| x2

pre-chorus 1:44
G|------------------||
D|------------------||
A|------------------||
E|1-11-8-88-6-66-4-6|| x2

chorus 2:48
G|------------------------------------||
D|------------------------------------||
A|-------6-6-6-6-0-4\6-6-6-6-6--------||
E|8-8-8-8---------------------6-6-6-6-|| x4

pre-chorus 3:26
G|------------------||
D|------------------||
A|------------------||
E|1-11-8-88-6-66-4-6|| x4

outro 4:08
G|------------------------------------||
D|------------------------------------||
A|-------6-6-6-6-0-4\6-6-6-6-6--------||
E|8-8-8-8---------------------6-6-6-6-|| x2

pre-chorus 4:27
G|------------------||
D|------------------||
A|------------------||
E|1-11-8-88-6-66-4-6|| x4

ending
G|------------------||
D|------------------||
A|------------------||
E|-8----------------|| x4
            
Submit corrections

comments powered by Disqus
↑ Back to top | Madrugada Bass for Kids Are On High Street. Lyrics for acoustic guitar and electric guitar. Tablatures and chords are parodies/interpretations of the original songs. You may use it for private study, scholarship, research or language learning purposes only