» » »

Madrugada, The Hour Of The Wolf Tabs (ver.1)

Artists:  A B C D E F G H I J K L M N O P Q R S T U V W X Y Z # 

The Hour Of The Wolf Tabs (ver.1)

Madrugada Tabs
Rating:
0/5 (0 votes)
The Hour Of The Wolf lessons Tabs too difficult? Try these video lessons and learn fast
                (Intro)
------------------------------------------------------------------------------
-------------------------------------------------------------------------------

Tuning: Standard


e|-------------------------------------------------------------------------------------------|
B|-------------------------------------------------------------------------------------------|
G|---------------------------------------------------0-0--------0-2--2-4-2-0-----------------|
D|---------0-2-2-2-0---------------------0-2-2-2-0-2--------0h2--------------2-0-2-0---------|
A|---0h2h3-----------3-2-0-------0h2h3-----------------------------------------------3-2-0---|
E|-------------------------------------------------------------------------------------------|


e|-------------------------------------------------------------------------------------------|
B|-------------------------------------------------------------------------------------------|
G|-------------------------------------------------------------------------------------------|
D|---------0-2-2-2-0-----------2p0-0--------2-2--2p0-0--------2-2--2p0-0--------2-2----------|
A|---0h2h3-------------3-2-0---------3p2-2--2-2--------3p2-2--2-2--------3p2-2--2-2----------|
E|------------------------------------------0-0---------------0-0---------------0-0----------|


e|------------0-0-0-0-0-0-0-0-0-0-0---|
B|------------0-0-0-0-0-0-0-0-0-0-0---|
G|---------1--1-1-1-1-1-1-1-1-1-1-1---|
D|---------2--2-2-2-2-2-2-2-2-2-2-2---|
A|---------2--2-2-2-2-2-2-2-2-2-2-2---|
E|------0--0--0-0-0-0-0-0-0-0-0-0-0---|



| /  slide up
| \  slide down
| h  hammer-on
| p  pull-off
| ~  vibrato
| +  harmonic
| x  Mute note
===============================================================================
            
Submit corrections

comments powered by Disqus
↑ Back to top | Madrugada Tabs for The Hour Of The Wolf. Lyrics for acoustic guitar and electric guitar. Tablatures and chords are parodies/interpretations of the original songs. You may use it for private study, scholarship, research or language learning purposes only