» » »

Madrugada, Move Tabs (ver.1)

Artists:  A B C D E F G H I J K L M N O P Q R S T U V W X Y Z # 

Move Tabs (ver.1)

Madrugada Tabs
Rating:
0/5 (0 votes)
Hard to play? Try these video lessons and learn fast.
                (Intro)

Guitar part from 0:00 to 0:54:

    F#m    D          A           F            C             Em
e||-------------2p0---------------------1----------------------|
B||----2-------------------2----------1---1---------1----------|
G||-2----2---2------2----2---2------2-------2----------0-----0-|
D||-4------0--------------------------------------2-------2--2-|
A||-4-----------------0---------1/3------------3-------------2-|
E||-2----------------------------------------------------------|
    D                    F#m    D           A            F
e||----2---2---0----------------------2p0----------------------|
B||--------------3----------2--------------------2-------------|
G||------2---2-----2-----2----2---2-------2----2---2-----------|
D||-0----------------0-2-4------0------------------------------|
A||----------------------4------------------0----------1/3-----|
E||------------------------------------------------------------|
               C           Em  A                       A
e||-----1----------------------------0--------------------0----|
B||---1---1--------1--------------2-----2--------------2-------|
G||-2-------2--------0-----0------2--------------------2-------|
D||--------------2------2--2------2--------------------2-------|
A||------------3-----------2---0-------------2/3-2-0-----------|
E||------------------------------------------------------------|
                                 D
e||-------------0----------------2--2p0-----0h2----2-------2---|
B||----2-----2-----2-------------------------------------------|
G||-------2------------------------------2-------2-------------|
D||-2----------------------------------------------------------|
A||--------------------1/2-0-----------------------------------|
E||------------------------------------------------------------|
             A                 A
e||-------------0-----------------0----------------------------|
B||----------2----2------------2----2--------------------------|
G||----------2-----------------2-------------------------------|
D||----------2-----------------2-------------------------------|
A||-2/3-2-0-----------1/2-1-0----------------------------------|
E||------------------------------------------------------------|
            

comments powered by Disqus
↑ Back to top | Madrugada Tabs for Move. Lyrics for acoustic guitar and electric guitar. Tablatures and chords are parodies/interpretations of the original songs. You may use it for private study, scholarship, research or language learning purposes only