» » »

Madrugada, Hands Up - I Love You Bass tabs (ver.1)

Artists:  A B C D E F G H I J K L M N O P Q R S T U V W X Y Z # 

Hands Up - I Love You Bass tabs (ver.1)

Madrugada Tabs
 Rating:
4/5 (4 votes)
Hands Up - I Love You lessons Tabs too difficult? Try these video lessons and learn fast
1
                Tuning EADG

Part A
G|---------------------------------|
D|---------------------------------|
A|------57------57-----------------|
E|-55858--355858--31101-1101101-13-|

Part A2
G|----------------------------------|
D|----------------------------------|
A|------57------57------------------|
E|-55858--355858--31101-1101101-122-|

Part A3
G|---------------------------------|
D|---------------------------------|
A|------57------57-----------------|
E|-55858--355858--31101-1101101-11-|


Part B
G|------------------------------------------------------------------|
D|------------------------------------------------------------------|
A|------35------35-----------------------35------35-----------------|
E|-33636--233636---1101-1101101-12233636---233636---1101-1101101-13-|

Part C
G|-----------------------------------------------------------------|
D|-----------------------------------------------------------------| 2x
A|-----------------------------------------------------------------| 
E|-3--3---3--3--5-10--10---10--10--8-5--5---5--5--7-8--8---8--8--8-|

G|----------------------------------------------------------------------|
D|----------------------------------------------------------------------| 1x 
A|----------------------------------------------------------------------|
E|-3--3---3--3--5-10--10---10--10--8-5--5---5--5--7-12--12---1210-8-7--7|


Part A  13x
Part A2  1x
Part B   1x
Part A   5x
Part A3  1x
Part C   1x
Part A  12x

GREAT song! please rate it
            
Submit corrections

comments powered by Disqus
↑ Back to top | Madrugada Bass for Hands Up - I Love You. Lyrics for acoustic guitar and electric guitar. 1 Tablatures and chords are parodies/interpretations of the original songs. You may use it for private study, scholarship, research or language learning purposes only