» » »

Madrugada, Black Mambo Bass tabs (ver.1)

Artists:  A B C D E F G H I J K L M N O P Q R S T U V W X Y Z # 

Black Mambo Bass tabs (ver.1)

Madrugada Tabs
Rating:
5/5 (1 vote)
Black Mambo lessons Tabs too difficult? Try these video lessons and learn fast
                Tuning EADG

Part A  
G|-----------------------------|
D|-----------------------------|
A|-7h------5h---5-7h-----------|
E|------57----7--------3h--5h--|

Part B 
G|-----------------------------------|
D|-----------------------------------|
A|-12h-------10h----10-12h---3h--5h--|  
E|------1012-----12------------------|

Part C
G|----------------------------|
D|----------------------------|
A|----------------------------|
E|-7h---57-7h---5h--3h---5h---|

Part D
G|---------------------------------|
D|---------------------------------|
A|---------------------------------|
E|-0-0-0-0-0-0-0-0-0-0-0-0-3h--5h--|

Part E
G|--------------------------|
D|------------------------7-|
A|-7h------5h---5-7h---5-5--|  
E|------57----7-------------|


Part A 12x
Part B  1x
Part A  1x
Part C  2x
Part A  4x
Part C  2x
Part A  8x
Part B  1x
Part A  1x
Part C  2x
Part D  4x
Part C  2x
Part E  6x 


That´s it...please rate it
            
Submit corrections

comments powered by Disqus
↑ Back to top | Madrugada Bass for Black Mambo. Lyrics for acoustic guitar and electric guitar. Tablatures and chords are parodies/interpretations of the original songs. You may use it for private study, scholarship, research or language learning purposes only