» » »

Madonna, The Power Of Goodbye Tabs (ver.1)

Artists:  A B C D E F G H I J K L M N O P Q R S T U V W X Y Z # 

The Power Of Goodbye Tabs (ver.1)

Madonna Tabs
 Rating:
4/5 (4 votes)
The Power Of Goodbye lessons Tabs too difficult? Try these video lessons and learn fast
                
Capo: 1st fret

Chords:(in relation to capo)
Em     X22000
C      X32010
G      320003
D      X00232
Bm     114431
Cmaj7  X32000
Dsus2  X00230
(strum all strings, unless noted not to[X])

Intro:
	Em C G D
	Em C G D
	Em C G D 
	C    Bm

Verse 1:
                 Em   C          G   D  
Your heart is not open so I must go 

                  Em   C              G   D  
The spell has been broken I loved you so 

Em                     C         
Freedom comes when you learn to let go 

G                       D                C   Bm  
Creation comes when you learn to say no 


Verse 2:       
           Em    C            G   D
You were my lesson I had to learn 

           Em     C              G   D  
I was your fortress you had to burn 

Em                     C 
Pain is a warning that something's wrong 

G                     D             C  
I pray to God that it won't be long

           D
I wanna go higher 


Chorus:
        Em      C        G   D
There's nothing left to try 

        Em       C        G   D
There's no place left to hide        

        Em         C              G      D      C   Bm
There's no greater power than the power of goodbye 


2nd Intro:(light rythmic stumming)
	Em-C-G-D


Verse 3:
                 Em   C          G   D
Your heart is not open so I must go 

                  Em    C              G   D
The spell has been broken, I loved you so 

            Em   C            G   D
You were my lesson I had to learn 

 		       C      Bm 
I was your fortress


Chorus:
        Em      C         G   D
There's nothing left to loose 

        Em      C          G   D
There's no more heart to bruise 

        Em         C              G      D      C   Bm
There's no greater power than the power of goodbye 


Bridge: (in relation to capo)
E |-----3-----2-----3-----0-----3-----2-----3-----0-|
B |----0-----0-----0-----------0-----0-----0--------|
G |---0-----0-----0-----0-----0-----0-----0-----0---|
D |-------------------------------------------------|
A |-2-----2-----2-----2-----2-----2-----2-----2-----|
E |-------------------------------------------------|
                         ...Learn to say goodbye...

    Em    Cmaj7 Em    Dsus2 Em         (hold)...             
E |-----3-----2-----3-----0-----3-----2-----3-----0--|
B |----0-----0-----0-----0-----0-----0-----0---------|
G |---0-----0-----0-----0-----0-----0-----0-----0----|
D |--------------------------------------------------|
A |-2-----2-----2-----2-----2-----2-----2-----2------|
E |--------------------------------------------------|
 		         ...I yearn to say goodbye...

   ...    Cmaj7 Em    Dsus2
E|------3-----2-----3-----0-|
B|-----0-----0-----0--------|
G|----0-----0-----0-----0---|
D|--------------------------|
A|--2-----2-----2-----2-----|
E|--------------------------|

Intrumental:
Em C G D
Em C G D
Em C G D
C    Bm


Chorus:
        Em      C        G   D
There's nothing left to try 

        Em    C                 G   D
There's no more places left to hide        

        Em         C              G      D      C   Bm
There's no greater power than the power of goodbye 


Chorus:
        Em      C         G   D
There's nothing left to loose 

        Em      C          G   D
There's no more heart to bruise 

        Em         C              G      D      C   Bm
There's no greater power than the power of goodbye 


Outro: (light rhythmic stumming)
Em-C-G-D-C-Bm
            
Submit corrections

comments powered by Disqus
↑ Back to top | Madonna Tabs for The Power Of Goodbye. Lyrics for acoustic guitar and electric guitar. Tablatures and chords are parodies/interpretations of the original songs. You may use it for private study, scholarship, research or language learning purposes only